Limp Bizkit - Take A Look Around Chords & Tabs

 

Take A Look Around Chords & Tabs

Limp Bizkit Chords & Tabs

Version: 19 Type: Tab 0 ratings
1 star 2 stars 3 stars 4 stars 5 stars
comments

Take A Look Around Tab

hey this is the tab for limp bizkit take a look around, an awesome guitar sound. probably the best ever. ive used other tabs and compared to get the best sound. correct me if im wrong , comment , email wotever suits u , mhaquer2000@hotmail.com

tuning drop D 

Intro Melody #1 - (Clean)
E------------------------------------------------------------------------
B------------------------------------------------------------------------
G------------------------------------------------------------------------
D------------5-7p5-------------------------------------------------------
A---7-7-7-7-7------7-7-7-7-75-6------------------------------------------
D------------------------------------------------------------------------


Intro Melody #2 - (Clean 2X and then Distorted 2X, as written in the order
below, Palm Muted)
E------------------------------------------------------------------------
B------------------------------------------------------------------------
G------------------------------------------------------------------------
D--------5-7p5-----------------------------------------------------------
A---7-7-7------7-7-75-6---(7)--------------------------------------------
D------------------------------------------------------------------------
**Bend the last note (7) when playing this one distorted for the last time.

[ Tab from: http://www.guitartabs.cc/tabs/l/limp_bizkit/take_a_look_around_tab_ver_19.html ]
Mission Impossible 2 Melody -
E---15-12------15-12------15-12------15-12-------------------------------
B---------12---------11---------10---------13-13-13-13-12-12-12----------
G------------------------------------------------------------------------
D------------------------------------------------------------------------
A------------------------------------------------------------------------
D------------------------------------------------------------------------ play the 15-12 really quickly, and dont slide. 


Chorus #1 - (Heavy Distortion)
E------------------------------------------------------------------------
B------------------------------------------------------------------------
G------------------------------------------------------------------------
D------------------------------------------------------------------------
A------------------------------------------------------------------------
D----222222--5-7-222222--0-1---------------------------


Chorus #2 - (Heavy Distortion)
E------------------------------------------------------------------------
B------------------------------------------------------------------------
G------------------------------------------------------------------------
D---222222--5-7--222222--0-1---------------------------
A---222222--5-7--222222--0-1---------------------------
D---222222--5-7--222222--0-1---------------------------



Chorus #3 - (Heavy Distortion)
E------------------------------------------------------------------------
B------------------------------------------------------------------------
G------------------------------------------------------------------------
D---2-2--5-7--2-2--0-1---------------------------------------------------
A---2-2--5-7--2-2--0-1---------------------------------------------------
D---2-2--5-7--2-2--0-1---------------------------------------------------


The order in which to play all these tabs:

Intro Melody #1 - 8X
MI:2 Melody - 2X
Intro Melody #1 - 2X
MI:2 Melody - 2X

Chorus #1 - 4X
Chorus #2 - 2X
Chorus #2 - 2X 
Intro Melody #1 - 2X
MI:2 Melody - 4X

Chorus #1 - 4X
Chorus #2 - 2X
Chorus #2 - 2X 
Chorus #3 - 2X

Intro Melody #2 - 8X (Clean, Palm Muted)
Intro Melody #2 - 4X (Distorted, Bend last note)

Chorus #2 - 2X
Chorus #2 - 2X 

MI:2 Melody - 4X


Comments