Limp Bizkit - Take A Look Around Chords & Tabs

 

Take A Look Around Chords & Tabs

Limp Bizkit Chords & Tabs

Version: 18 Type: Tab 0 ratings
1 star 2 stars 3 stars 4 stars 5 stars
comments

Take A Look Around Tab

You need to tune ur guitar down so it's a kinda Drop C tuning then play it like this.

E|-----------------------------------|
B|-----------------------------------|
G|-------------0-2p0-----------------|
D|-2--2--2--2-2----------------------|
A|-------------------7--7--7--7-7-5-6|
C|-4-----------------7---------------|
[ Tab from: http://www.guitartabs.cc/tabs/l/limp_bizkit/take_a_look_around_tab_ver_18.html ]
E|-----------------------------------|
B|-----------------------------------|
G|-------------0-2p0-----------------|
D|-2--2--2--2-2------2--2--2--2-2-0-1|
A|-----------------------------------|
C|-0-----------------2---------------|

That's all folks! Just repeat this pattern until the next bit starts. I'm not sure on the rest of the song.

If you find any wrong bits in there, just add a comment at the bottom of the page. If you think this is a good TAB, send us a comment aswell. Nice one guys!

(By-the-way, this is my 1st TAB so there probably will be sum mistakes in there)
Comments