Limp Bizkit - Take A Look Around Chords & Tabs

 

Take A Look Around Chords & Tabs

Limp Bizkit Chords & Tabs

Version: 14 Type: Tab 0 ratings
1 star 2 stars 3 stars 4 stars 5 stars
comments

Take A Look Around Tab

Limp Bizkit,Take a look around.
Tabbed by Wes Borland, wes.borland@soon.com.
  
Riff 1: clear sound
---------------------------------------
---------------------------------------
---------------------------------------
------------5-7-5----------------------
---7-7-7-7-7-----7-7-7-7-7-5-6---------
---------------------------------------
                                                                              
Riff 2: clear sound with eco 
---14--11--------14--11--------14--11-------14--11------------------
-----------11------------10------------9------------12--12-12-11-11-
--------------------------------------------------------------------
--------------------------------------------------------------------
--------------------------------------------------------------------
--------------------------------------------------------------------
                                                                            
Riff 1: clear sound
---------------------------------------
---------------------------------------
---------------------------------------
------------5-7-5----------------------
---7-7-7-7-7-----7-7-7-7-7-5-6---------
---------------------------------------

Riff 2: clear sound with eco
---14--11--------14--11--------14--11-------14--11------------------
-----------11------------10------------9------------12--12-12-11-11-
--------------------------------------------------------------------
--------------------------------------------------------------------
--------------------------------------------------------------------
--------------------------------------------------------------------
[ Tab from: http://www.guitartabs.cc/tabs/l/limp_bizkit/take_a_look_around_tab_ver_14.html ]
Riff 3: heavy dist
--------------------------------------------------------
--------------------------------------------------------
--------------------------------------------------------
---7/8--7/8--7/8--7/8--11--13--7/8--7/8--7/8--7/8--6--7-
---5/6--5/6--5/6--5/6---9--11--5/6--5/6--5/6--5/6--4--5-
--------------------------------------------------------
                                                                           
Riff 1: clear sound
---------------------------------------
---------------------------------------
---------------------------------------
------------5-7-5----------------------
---7-7-7-7-7-----7-7-7-7-7-5-6---------
---------------------------------------


Riff 2: clear sound with eco
---14--11--------14--11--------14--11-------14--11------------------
-----------11------------10------------9------------12--12-12-11-11-
--------------------------------------------------------------------
--------------------------------------------------------------------
--------------------------------------------------------------------
--------------------------------------------------------------------

Riff 3: heavy dist
--------------------------------------------------------
--------------------------------------------------------
--------------------------------------------------------
---7/8--7/8--7/8--7/8--11--13--7/8--7/8--7/8--7/8--6--7-
---5/6--5/6--5/6--5/6---9--11--5/6--5/6--5/6--5/6--4--5-
--------------------------------------------------------

Riff 4: heavy dist
-------------------------
-------------------------
-------------------------
---8-8--11-13--8-8--6-7--
---6-6---9-11--6-6--4-5--
-------------------------

Riff 5: touch the strings soft with heavy dist 
-----------------------
-----------------------
-----------------------
---2-2--5-7--2-2--0-1--
-----------------------
-----------------------

Riff 3: heavy dist
--------------------------------------------------------
--------------------------------------------------------
--------------------------------------------------------
---7/8--7/8--7/8--7/8--11--13--7/8--7/8--7/8--7/8--6--7-
---5/6--5/6--5/6--5/6---9--11--5/6--5/6--5/6--5/6--4--5-
--------------------------------------------------------

Riff 2: clear sound
---14--11--------14--11--------14--11-------14--11------------------
-----------11------------10------------9------------12--12-12-11-11-
--------------------------------------------------------------------
--------------------------------------------------------------------
--------------------------------------------------------------------
--------------------------------------------------------------------

----------------------------
Copyright 2000 Wes Borland, Limp Bizkit  

:: Ultimate Guitar Archive :: 
http://www.ultimate-guitar.com 



Comments