Limp Bizkit - Take A Look Around Chords & Tabs

 

Take A Look Around Chords & Tabs

Limp Bizkit Chords & Tabs

Version: 1 Type: Tab 2 ratings
1 star 2 stars 3 stars 4 stars 5 stars
comments

Take A Look Around Tab

				"TAKE A LOOK AROUND"
                                       by
				   Limp Bizkit

INTRO
x|------------------------------|
x|------------------------------|
x|------------------------------|
x|----------6-8h6---------------|
x|-8-8-8-8-8-----8-8-8-8-8--4-5-|
x|------------------------------|

FOR THE VERSE LOOK SOMEWHERE ELSE CAUSE I CANT GET IT RIGHT
[ Tab from: http://www.guitartabs.cc/tabs/l/limp_bizkit/take_a_look_around_tab.html ]
PRE-CHORES
x|----------------------------|
x|----------------------------|
x|----------------------------|
x|----------6-8---------------|
x|-8-8-8-8-8---8-8-8-8-8--4-5-|
x|----------------------------|

CHORUS
x|--------------------------------|
x|--------------------------------|
x|--------------------------------|
x|--------------------------------|
x|-8-8-8-8-8-10-12-8-8-8-8-8--4-5-|
x|-8-8-8-8-8-10-12-8-8-8-8-8--4-5-|
Comments