Limp Bizkit - Take A Look Around Mi Chords & Tabs

 

Take A Look Around Mi Chords & Tabs

Limp Bizkit Chords & Tabs

Version: 1 Type: Tab 0 ratings
1 star 2 stars 3 stars 4 stars 5 stars
comments

Take A Look Around Mi Tab

This is probably wrong but its all I can be bothered working out.
E-Mail me if its wrong.

Riff 1

------------------------------------------------------------
------------------------------------------------------------
------------------------------------------------------------
---------------4--6-4---------------------------------------
-6--6--6--6-6---------6--6--6--6-6-4--5---------------------
------------------------------------------------------------

Riff 2

-14--------14--------14--------14---------------------------
----16--------16--------16--------16------------------------
-------15--------14--------13--------16--15-----------------
------------------------------------------------------------
------------------------------------------------------------
------------------------------------------------------------

Riff 3a
[ Tab from: http://www.guitartabs.cc/tabs/l/limp_bizkit/take_a_look_around_mi_tab.html ]
------------------------------------------------------------
------------------------------------------------------------
------------------------------------------------------------
-----------------4-6----------------------------------------
-4-6-4-6-4-6-4-6------4-6-4-6-4-6-4-6-4-5-------------------
------------------------------------------------------------

Riff 3b

------------------------------------------------------------
------------------------------------------------------------
---8---8---8---8--11--13----8---8---8---8---6---7-----------
---8---8---8---8--11--13----8---8---8---8---6---7-----------
---6---6---6---6---9--11----6---6---6---6---4---5-----------
---6---6---6---6---9--11----6---6---6---6---4---5-----------

Riff 4

---------------------------------------------
---------------------------------------------
---8---8---11--13----8---8---6---7-----------
---8---8---11--13----8---8---6---7-----------
---6---6----9--11----6---6---4---5-----------
---6---6----9--11----6---6---4---5-----------

Order 
----- 
Riff 1 x12
Riff 2 x2
Riff 1 x2
Riff 2 x2
Riff 3a x4
Riff 3b x4
Riff 1 x4
Riff 2 x5
Riff 3a x4
Riff 3b x4
Riff 4 x2
Riff 1 x12
Riff 3b x4
Riff 2 fade out

Summit like that

Luke Jones
http://mp3dungeon.homepage.com/ Download MI2!
Comments