Limp Bizkit - Take A Look Around (mi2 Theme) Chords & Tabs

 

Take A Look Around (mi2 Theme) Chords & Tabs

Limp Bizkit Chords & Tabs

Version: 2 Type: Tab 0 ratings
1 star 2 stars 3 stars 4 stars 5 stars
comments

Take A Look Around (mi2 Theme) Tab

   
Limp Bizkit
Take a Look Around (Mission Impossible 2 Theme)
Chocolate Starfish and the Hotdog Flavored Water
2000


Tuning- Drop D

h=Hammer
p=Pull off
s=Staccato


Part A –x8
E|--------------------------------|
B|--------------------------------|
G|-----------0--2p0---------------|
D|-2-2-2-2-2-------2-2-2-2-2--0-1-|
A|--------------------------------|
D|--------------------------------|

Part B –x2
E|-15p12----|-15p12----|-15p12----|-15p12------------------|
B|-------12-|-------11-|-------10-|-------13-13-13—12-12-12|
G|----------|----------|----------|------------------------|
D|----------|----------|----------|------------------------|
A|----------|----------|----------|------------------------|
D|----------|----------|----------|------------------------|

Part A –x2
Part B –x2

Part C -x2 [Distortion]
E|--------------------------------------------|
B|--------------------------------------------|
G|--------------------------------------------|
D|--------------------------------------------|
A|--------------------------------------------|
D|-0h2-0h2-0h2-0h2--5-7--0h2-0h2-0h2-0h2--0-1-|
[ Tab from: http://www.guitartabs.cc/tabs/l/limp_bizkit/take_a_look_around_mi2_theme_tab_ver_2.html ]
 
Part D –x4 [Distortion]
E|--------------------------------------------|
B|--------------------------------------------|
G|--------------------------------------------|
D|--------------------------------------------|
A|-0-2-0-2-0-2-0-2--5-7--0-2-0-2-0-2-0-2--0-1-|
D|-0-2-0-2-0-2-0-2--5-7--0-2-0-2-0-2-0-2--0-1-|

Part A –x2
Part B –x4
Part C –x2
Part D –x4

Part E –x3 [Distortion]	…On third time into Part D
E|-------------------|---------------------------------------------------|
B|-------------------|---------------------------------------------------|
G|-------------------|---------------------------------------------------|
D|-------------------|---------------------------------------------------|
A|-2s2--5-7—2s2--0-1-|---------------------------------------------------|
D|-2s2--5-7-2s2--0-1-|-2-2-2-2-2--5-7--2-2-2-2-2-0-1-|-2-2-2-2-2--5-7--2-|

Part D –x4
Part B –Fading

The End

Pretty fun and easy song, not too much to it you just have to get the rhythm right on Part D and it sounds really good. 
Whole thing sounds good with distortion but it up to you if you want the first two parts (A,B) distorted or not. 
Comments