Limp Bizkit - Take A Look Around Chords & Tabs

 

Take A Look Around Chords & Tabs

Limp Bizkit Chords & Tabs

Version: 6 Type: Bass Tab 0 ratings
1 star 2 stars 3 stars 4 stars 5 stars
comments

Take A Look Around Bass Tab

Tabbed By Chappell AKA Rancid Meat

INTRO    1st time around       2nd Time Around
G-----------(----)           (--6-)
D--8-11-9---(--11)           (---6)  
A-6-9--7----(-9--)           (-4--)
E-----------(----)           (----)
[ Tab from: http://www.guitartabs.cc/tabs/l/limp_bizkit/take_a_look_around_btab_ver_6.html ]
G---------------1111----
D-1111-4444---4-----4444
A----------222-4--------
E-----------------------



VERSE
G-----------1----
D--1-1-1-1-4-----
A-4-4-4-4--------
E----------------



CHORUS
G-----1------  
D1-1-4---11-0
A----------4-
E------------

You can figure out the timing yourself.  Its not very difficult!
Comments