Limp Bizkit - Take A Look Around Chords & Tabs

 

Take A Look Around Chords & Tabs

Limp Bizkit Chords & Tabs

Version: 5 Type: Bass Tab 0 ratings
1 star 2 stars 3 stars 4 stars 5 stars
comments

Take A Look Around Bass Tab

   
Title: Take A Look Around
Artist: Limp Bizkit
Comments: I Got the Bass Bit done, It sounds rite My bassit Haveing trouble
Playing It :) but he can get it by the end of month. Anyway this Bass tab goes wid My
Guitar version of this song \m/Rock ON \m/

intro 
G |----------------------2slap------7slap-------9slap---|
D |-----------------------------------------------------|
A |---------------0-------------5------------7----------|
E |-2---------------------------------------------------|

Verse 1 
[ Tab from: http://www.guitartabs.cc/tabs/l/limp_bizkit/take_a_look_around_btab_ver_5.html ]
G|----------------------------------------------------------|
D|-----------------------------------------------------9977-|
A|---------------00000000000000555555555555555777777777-----|
E|-22222222222222-------------------------------------------|
    F#            A             D              E 

Riff 3

G|------------------|-------------------|
D|------------------|-------------------|
A|-----------0--2---|-------------------|
E|--2-2-2-2---------|--2-2-2-2---0--1---|


Bridge(Rif 3 comes in at this bit)
Bass riff3   Bass riff3   Bass riff3   Bass riff3
Shhh_____
Bass riff3
now____     I____
Bass riff3
know___     why___
Bass riff3
now____     I____
Bass riff3
know___     why___  (I know why you wanna hate me)
Bass riff3 + Riff6
now___ (now I know why you wanna hate me)  I___
Bass riff3 + Riff6
know (now I know why you wanna hate me)    why___
Bass riff3 + Riff6
now (now I know why you wanna hate me)     I___
Bass riff3 + Riff6
know (now I know why you wanna hate me)    why_____
Comments