Limp Bizkit - Take A Look Around Chords & Tabs

 

Take A Look Around Chords & Tabs

Limp Bizkit Chords & Tabs

Version: 3 Type: Bass Tab 1 rating
1 star 2 stars 3 stars 4 stars 5 stars
comments

Take A Look Around Bass Tab

Take a look around
limp Bizkit
Tabbed by jamie hope

Riff 1
Intro
/=Slide
G|-8------11-------------
D|-------------9------11-
A|6--6/9-9--9------------
E|------------7--7/9-9--9
B|-----------------------
[ Tab from: http://www.guitartabs.cc/tabs/l/limp_bizkit/take_a_look_around_btab_ver_3.html ]
Riff 2
Verus
G|------------------------------------------------
D|------------------------------------------------
A|6666666666-9999999999------------------11-11-9-9
E|---------------------7777777777-9999999---------
B|------------------------------------------------

Riff 3
Chorus
G|---------------
D|----5-7--------
A|7777---7777-5-6
E|---------------
B|---------------

Listen to cd to get riff order and rytham for Verus Riff
Comments