Limp Bizkit - Take A Look Around Chords & Tabs

 

Take A Look Around Chords & Tabs

Limp Bizkit Chords & Tabs

Version: 1 Type: Bass Tab 0 ratings
1 star 2 stars 3 stars 4 stars 5 stars
comments

Take A Look Around Bass Tab

Artist: Limp Bizkit
Song: Take a Look Around
Album: chocolate starfish and the hot dog flavored water

A tab by Tic Tac
@ = hb_222@hotmail.com

Jim Bardsley tab was not bad
So I give you lot of credit
Keep up the good work and the Tabing!

Comments:
I have given this tab a thought.
I have red a lot of different tryes on this
song and here is my version.
On the Before Chorus, Watch the Video and
you will understand. And about the Chorus it self:
I came up with it when I watcht the video and a Guitar Tab,
Plus it sound good to.

I had a Crazy Tuning when I tabed this song and that
was:  C#, F#, B and the G string I just turnd up a little
bit so it sounded good on the Intro :-)
If you dont like the tuning or the tab, Dont e-mail me
and say it. You like the tab and the tuning, e-mail me
and tell me.

Have a Nice day and Rock On.

________________________________________


Intro:  (x2)
 |------------10---------------
 |------------------9-----11---
 |--6-6----8-------------------
 |---------------7-----9-------

End Intro:  (x2)
 |-------------------------
 |--------666--------------
 |--8-88-------4-44--666---
 |-------------------------

Verse   (x4)
 |----------------------------------------------------------
 |--------------66666666666666----------------------88866---
 |-8888888888888--------------4444444444444-6666666------6--
 |----------------------------------------------------------

Verse Fill In:  (x1)
 |---------------------------------------
 |-----------6-6-666---------------------
 |--8-8-888-----------4-4-444---6-6-666--
 |---------------------------------------

Verse   (x2)
 |----------------------------------------------------------
 |--------------66666666666666----------------------88866---
 |-8888888888888--------------4444444444444-6666666------6--
 |----------------------------------------------------------

Before Chorus:  (You have to listen to it too know when
to play it. Its when Wes start the Chorus)

 |----------------------
 |----------------------
 |----------------------
 |--3:----4:----2:------   (x1)

Chorus:    (P.s Listen to the Chorus Carefully)
 |------------------------------------------
 |------------------------------------------
 |------------------------------------------
 |--2-0-2-0-2-0-2--5-7--2-0-2-0-2-0-2--0-1--  (x2)
[ Tab from: http://www.guitartabs.cc/tabs/l/limp_bizkit/take_a_look_around_btab.html ]
 |------------------------------------------
 |------------------------------------------
 |------------------------------------------
 |--2p0-2p0-2p0-2--0-1--2p0-2p0-2p0-2--5-7--  (x2)


Before Verse:   (x1)
 |----------------------------------------------------------
 |--------------66666666666666------------------------------
 |-8888888888888--------------4444444444444-666666666666----
 |----------------------------------------------------------

Verse:          (x4)
 |----------------------------------------------------------
 |--------------66666666666666----------------------88866---
 |-8888888888888--------------4444444444444-6666666------6--
 |----------------------------------------------------------

Before Chorus:
 |----------------------
 |----------------------
 |----------------------
 |--3:----4:----2:------   (x1)

Chorus:
 |------------------------------------------
 |------------------------------------------
 |------------------------------------------
 |--2-0-2-0-2-0-2--5-7--2-0-2-0-2-0-2--0-1--  (x2)

 |------------------------------------------
 |------------------------------------------
 |------------------------------------------
 |--2p0-2p0-2p0-2--0-1--2p0-2p0-2p0-2--5-7--  (x2)

End Chorus:
 |------------------------------------------
 |------------------------------------------
 |------------------------------------------
 |--2-2--5-7--2-2--0-1--2-2--5-7--2-2--0-1--  (x4)


Interlude:
 |----------------------------------------------
 |------------6666666666------------------------
 |--8888888888----------4444444444-6666666666---
 |----------------------------------------------  (x4)

 |------------------------------------------
 |------------------------------------------
 |------------------------------------------
 |--2-0-2-0-2-0-2--5-7--2-0-2-0-2-0-2--0-1--  (x2)

 |------------------------------------------
 |------------------------------------------
 |------------------------------------------
 |--2p0-2p0-2p0-2--0-1--2p0-2p0-2p0-2--5-7--  (x2)

Verse:          (x4)
 |----------------------------------------------------------
 |--------------66666666666666----------------------88866---
 |-8888888888888--------------4444444444444-6666666------6--
 |----------------------------------------------------------


_____________________________

Symbols:

2:      Let the note ring
~2     Vibrate the note
‰3     Vibrate the note up and down
2/~   Vibrate the note when pulling it up or down
\/      Pull it up or down
3h4   Hammer on from note 3 too 4
5p4   Pull off from note 5 too 4
s        Slap Note
p        Pop note

Comments