Limp Bizkit - Stuck Chords & Tabs

 

Stuck Chords & Tabs

Limp Bizkit Chords & Tabs

Version: 4 Type: Tab 0 ratings
1 star 2 stars 3 stars 4 stars 5 stars
comments

Stuck Tab

Intro- Bass Transcribed for Guitar
C#|------------------------------------|
G#|------------------------------------|
B |------------------------------------|
E |-----------5/(4)------------5^(1/4)-|
F#|------3----------------3------------|
C#|-2----------------2-----------------|

Verse- play clean w/ delay
C#|------------------16----16--16--16---17---17--17--17--|
G#|------------------------------------------------------|
B |-13---------------------------------------------------|
E |------------------------------------------------------|
F#|-15---------------------------------------------------|
C#|------------------------------------------------------|

Chorus 1- play with distortion
C#|--------------------------------------------|
G#|--------------------------------------------|
B |--------------------------------------------|
E |-2-2-----------5-----6-----5-----6-----5--5-|
F#|-2-2-----------5-----6-----5-----6-----5--5-|
C#|-0-0-----------3--0--4--0--3--0--4--0--3--3-|
                       
Chorus 2- play with distortion
C#|------------------------------|
G#|------------------------------|
B |------------------------------|
E |-5-----6-----5-----6-----5--6-|
F#|-5-----6-----5-----6-----5--6-|
C#|-3--0--4--0--3--0--4--0--3--4-|
[ Tab from: http://www.guitartabs.cc/tabs/l/limp_bizkit/stuck_tab_ver_4.html ]
Chorus 3- play with distortion
C#|-------------------------------|
G#|-------------------------------|
B |-------------------------------|
E |-----4--3----------------------|
F#|-----2--1-----5-----6----5/(6)-|
C#|-0-0------0-0-3--0--40--3/(4)-|

Chorus 4- play with distortion
C#|---------------------------|
G#|---------------------------|
B |---------------------------|
E |-----4--3----------5-5-5-6-|
F#|-----2--1----------5-5-5-6-|
C#|-0-0------0-0-3----3-3-3-4-|

Bridge 1
C#|-x--x-------x-x-x-------x-------x-x-------x-x-x-------x-x-|
G#|-x--x-------x-x-x-------x-------x-x-------x-x-x-------x-x-|
B |-x--x-------x-x-x---------------x-x-------x-x-x-------x-x-|
E |----------------------------------------------------------|
F#|----------------------------------------------------------|
C#|----------------------------------------------------------|

Bridge 2
C#|-------------------------------------|
G#|-------------------------------------|
B |-------------------------------------|
E |-------------------------------------|
F#|-6-----7-----6---------6-----7-----6-|
C#|----0-----0---------------0-----0----|

Bridge 3
C#|------------------------------|
G#|------------------------------|
B |------------------------------|
E |------------------------------|
F#|-6-----7-----6-----7-----6--7-|
C#|----0-----0-----0-----0-------|

Bridge 4
C#|------------------------------|
G#|------------------------------|
B |------------------------------|
E |-1-----2-----1-----2-----1--2-|
F#|-1-----2-----1-----2-----1--2-|
C#|----0-----0-----0-----0-------|
Comments