Limp Bizkit - Stuck Chords & Tabs

 

Stuck Chords & Tabs

Limp Bizkit Chords & Tabs

Version: 3 Type: Tab 0 ratings
1 star 2 stars 3 stars 4 stars 5 stars
comments

Stuck Tab

Song: Stuck
Band: Limp Bizkit
Album: Three Dollar Bill Y'all$
Tabbed by: Davey713@aol.com

Opening / Verse Riff (bass on guitar):
-------------------------
-------------------------
-------------------------
------------------------- repeat several times
--------8p7------8-7-----
----7-8------7-8---------
[ Tab from: http://www.guitartabs.cc/tabs/l/limp_bizkit/stuck_tab_ver_3.html ]
Chorus:
----------------------------------------------
----------------------------------------------
----------------------------------------------
---2-2--------4---5---4---5---4/5\4-2-2-------
---2-2--------4---5---4---5---4/5\4-2-2-------
---0-0--------2-0-3-0-2-0-3-0-2/3\2-0-0-------

Post-Chorus:
---------------------------------
---------------------------------
---------------------------------
---2-2--5-4------4-----5-----4/5-
---2-2--3-2------4-----5-----4/5-
---0-0-------0-0-2--0--3--0--2/3-

Interlude (Bass):
------------------------------
------------------------------
------------------------------
---0-7-6-3-4-3-2-3-0-7-6-3-0--


Build up (Gets progressively faster):
D------------------
A------------------
F----6-7-6-7-6/7---
C----6-7-6-7-6/7---
G----4-5-4-5-4/5---
C------------------
Comments