Limp Bizkit - Stuck Chords & Tabs

 

Stuck Chords & Tabs

Limp Bizkit Chords & Tabs

Version: 2 Type: Tab 0 ratings
1 star 2 stars 3 stars 4 stars 5 stars
comments

Stuck Tab

   
#-----------------------------PLEASE NOTE-------------------------------------#
#This OLGA file is the author's own work and represents their interpretation  #
#of the song. You may only use this file for private study, scholarship, or   #
#research. Remember to view this file in Courier, or some other monospaced    #
#font. See http://www.olga.net/faq/ for more information.                     #
#-----------------------------------------------------------------------------#

From: TBone512@aol.com
Date: Wed, 2 Jun 1999 13:38:00 EDT
Subject: l/limp_bizkit/stuck.tab

Stuck by Limp Bizkit
Off of Three Dollar Bill, Y'all

The tab previously submitted has some mistakes, so
here is a corrected version of the tab 
that someone else transcribed.

Listen to the album to get the rhythm of the riffs

Detuned 7-String guitar with added high E string arranged for 6-String guitar 
Tune all strings down 1 +1/2 steps 
(Low to high C# F# B E G# C#)

Transcribed by Todd Baldwin (Tbone512@aol.com)

Verse riff,  Clean with delay effect
 
C#------------------------|--16--16--16---17---17--------|      
G#------------------------|------------------------------|      
E-------------------------|------------------------------|     
B-------------------------|------------------------------|    
F#------------------------|------------------------------|     
C#------------------------|------------------------------|	

Verse turntable effect arranged for guitar 

C#------------21----------|-R----------------------------|      
G#------------------------|------------------------------|      
E-------------------------|------------------------------|     
B-------------------------|------------------------------|    
F#------------------------|------------------------------|     
C#------------------------|------------------------------|

Chorus riff 1 (with distortion, . = staccato note) 
[ Tab from: http://www.guitartabs.cc/tabs/l/limp_bizkit/stuck_tab_ver_2.html ]
C#-----------------------------------------|
G#-----------------------------------------|
E------------------------------------------|  
B--2-2-----5-----6-----5-----6-----5---5---| 
F#-2-2-----5-----6-----5-----6-----5---5---|  
C#-0-0-----3---0-4---0-3---0-4---0-3---3---| 
  					     .

Chorus riff 2 (* = Palm mute)
 
C#----------------------------------|
G#----------------------------------|
E-----------------------------------|  
B------9-8-------5-----6-----5------| 
F#-----9-8-------5-----6-----5------|  
C#-0-0-7-6---0-0-3---0-4---0-3------|  
   * *       * *
Chorus tail riff

C#----------------------------------|
G#----------------------------------|
E-----------------------------------|  
B------9-8-------5---5----5---6-----| 
F#-----9-8-------5---5----5---6-----|  
C#-0-0-7-6---0-0-3---3----3---4-----|
   * *       * * *   *    *   *   
Jazzy Interlude

C#----15--------|
G#----17--------| Play this note 
E---------------| over and over again
B---------------| listen to album for 
F#--------------| rhythm
C#--------------|	
        
Breakdown part 1 (clean tone)

*** The entire breakdown part is played on a guitar 
with the low C# tuned down to C ***

R = Rest
 
C#------------------------|
G#------------------------|
E-------------------------|
B-------------------------|
F#------------------------|
C--12---0-13---0-12--R----|	

C#-----------------------------------|
G#-----------------------------------|
E------------------------------------|
B------------------------------------|
F#-----------------------------------|
C--12---0-13--0-12---13--0--12--13---|

Breakdown part 2 

(with Digitech Whammy pedal set to produce 
notes two octaves lower than actual pitch, 
and distortion) 

C#-----------------------------------|
G#-----------------------------------|
E------------------------------------|
B------------------------------------|
F#-----------------------------------|
C--12---0-13--0-12---13--0--12--13---| 

Send questions, comments to Tbone512@aol.com, and if you want more insight on 
how to play any other Limp Bizkit tunes, just mail me.

Comments