Limp Bizkit - Stuck Chords & Tabs

 

Stuck Chords & Tabs

Limp Bizkit Chords & Tabs

Version: 1 Type: Tab 0 ratings
1 star 2 stars 3 stars 4 stars 5 stars
comments

Stuck Tab

   
stuck
by limp bizkit
music&lyrics by limp bizkit
tabbed by Alex
tuning:C# G# E B F# C# 

[INTRO]
played by bass but sounds good on guitar
 -----------------------
 -----------------------
 -----------------------
 -----4h5~~-----5~~-h4~-
 ---3---------3---------
 -2---------2-----------

 [VERSE]
 --------16-16-16-16-17-17-17--
 ------------------------------
 -15-15------------------------
 ------------------------------
 -13-13------------------------
 ------------------------------
[PRE-CHORUS]
 ----------------------
 ----------------------
 ----------------------
 -2-2---5---6---5-5-6--
 -2-2---5---6---5-5-6--
 -0-0-0-3-0-4-0-3-3-4--
[ Tab from: http://www.guitartabs.cc/tabs/l/limp_bizkit/stuck_tab.html ]
[CHORUS]
 -----------------------
 -----------------------
 -----------------------
 -2-2-4-3-2-2---------------
 -2-2-2-1-2-2--5---6---5/6-
 -0-0-----0-0--3-0-4-0-3/4-
p.m.-     ---    -   -  

 -----------------------
 -----------------------
 -----4-3---------------
 -2-2-4-3------5-5-5-6--
 -2-2-2-1------5-5-5-6--
 -0-0-----0-0--3-3-3-4--
  P.M.    ------------|

[BRIDGE]
 --------------------------------------------------------
 -15-15-x-x-xx-15-15-xx-xx-15-xx-15-xx-15-x-x-15-x-x-15--
 -------x-x-xx-------xx-xx----xx----xx-15-x-x-15-x-x-12--
 -12-12-x-x-xx-12-12-xx-xx-12-xx-12-xx----x-x----x-x-----
 --------------------------------------------------------
 --------------------------------------------------------

---------
---------
---------
---------
-6--7-6--
---0-0---
P.M.---

-------------------
-------------------
-------------------
-------------------
-6---7--6--7---6-7-
---0---0--0--0-----
 
Comments