Limp Bizkit - Stuck Chords & Tabs

 

Stuck Chords & Tabs

Limp Bizkit Chords & Tabs

Version: 2 Type: Bass Tab 0 ratings
1 star 2 stars 3 stars 4 stars 5 stars
comments

Stuck Bass Tab

Stuck
Limp Bizkit
Tabbed by Jamie Hope bassist for FLEEF !!!
limp bizkit are sweet 
Drop d tuning
*=hold

#Riff 1

G|-----9*8--------9***8
D|--7----------7-------
A|6----------6---------
D|---------------------
[ Tab from: http://www.guitartabs.cc/tabs/l/limp_bizkit/stuck_btab_ver_2.html ]
#Riff 2
G|---------------------
D|---------------------
A|---------------------
D|2-0-3-0-2-0-3-0-22-00--

#Riff 3
G|--------------
D|-6-5----------
A|4----7-8-7-6-5
D|--------------

#Riff 4
G|---------------------
D|5-4-5-4-5-4-5-4-5-4--
A|---------------------
D|---------------------

Listen to the cd to get the riff order


Comments