Limp Bizkit - Stuck Chords & Tabs

 

Stuck Chords & Tabs

Limp Bizkit Chords & Tabs

Version: 1 Type: Bass Tab 0 ratings
1 star 2 stars 3 stars 4 stars 5 stars
comments

Stuck Bass Tab

   
I tabbed this song for 4 String Bassists and 5 String Bassists (If you have a 5 string but you're not very good, tune that low B string half a step higher to C#, those of you who use Korg tuners, press the b(flat) button three times and to it on E.

Limp Bizkit - Stuck  
If you play a lot of Limp Bizkit songs, it will help to know that Sam Rivers tunes his bass C# E A D G 

Four String Version (Tune E string to C#) 

I know that the verses could be played just on the A D and G string and it's easier to play but the way Sam has his equalizer set, he plays it the way I tabbed it: 

Intro and Verses 
G|-----------------------------------------------------| 
D|-------14/13-let-Ring---14-hold-then-slide-down-to-13| 
A|----11----------------11-----------------------------| 
C#|-14----------------14-------------------------------| 

Pre Chorus (You wanna play that game bitch?!.) 
G|----------------------| 
D|----------------------| 
A|----------------------| 
C#|--3-0-4-0-3-0-4-3-3-0| 

Chorus (Stuck! Stuck! Deep down in that hole again!.) 
G|-------------------------| 
D|-------------------------| 
A|-------------------------| 
C#|--0-0-7-6-0-0-3-0-4-0-3-| 


Then Back to the Verse: 
G|-----------------------------------------------------| 
D|-------14/13-let-Ring---14-hold-then-slide-down-to-13| 
A|----11-----------------11----------------------------| 
C#|-14-----------------14------------------------------| 

Then the Pre Chorus (You wanna play that game bitch?!.) 
G|----------------------| 
D|----------------------| 
A|----------------------| 
C#|--3-0-4-0-3-0-4-3-3-0| 

Chorus (Stuck! Stuck! Deep down in that hole again!.) 
G|-------------------------| 
D|-------------------------| 
A|-------------------------| 
C#|--0-0-7-6-0-0-3-0-4-0-3-| 

Bridge (You're so stuck and you don't even know.) 
G|----------------| 
D|---6-5----------| 
A|--4---7-8-7-6-5-| 
C#|---------------| 

after playing the bridge a buncha times, Fred says I got a little problem, you play: 
G|---------------| 
D|---------------| 
A|-x-4-x-4-4-4-4-| 
C#|--------------| 

Fred Yells Why you gotta be like that?! Play this awhile: 
G|----------------------------------------| 
D|----------------------------------------| 
A|----------------------------------------| 
C#|--0-0-7-6-0-4-0-3-3--0-0-7-6-0-4-0-333-| 

after "Stuck on yourself you are!" you play the Pre Chorus a bit: 
G|----------------------| 
D|----------------------| 
A|----------------------| 
C#|--3-0-4-0-3-0-4-3-3-0| 
[ Tab from: http://www.guitartabs.cc/tabs/l/limp_bizkit/stuck_btab.html ]
Then play the Chorus (Stuck! Stuck! Deep down in that hole again!.) 
G|-------------------------| 
D|-------------------------| 
A|-------------------------| 
C#|--0-0-7-6-0-0-3-0-4-0-3-| 


and that's all folks. 
any questions or requests for tabs or lyrics, my email 
address is Hindubeef@hotmail.com 


5 String Version in standard B E A D G tuning: 

Intro and Verses 
G|-----------------------------------------| 
D|------14/13-let-ring------14-let-ring/13-| 
A|----12------------------12---------------| 
E|--11------------------11-----------------| 
B|-----------------------------------------| 

Pre Chorus (You wanna play that game bitch?!.) 
G|----------------------| 
D|----------------------| 
A|----------------------| 
E|----------------------| 
B|--4-2-5-2-4-2-5-4-4-2-| 

Chorus (Stuck! Stuck! Deep down in that hole again!.) 
G|-------------------------| 
D|-------------------------| 
A|-------------------------| 
E|-------------------------| 
B|--2-2-9-8-2-2-4-2-5-2-4--| 

Verses 
G|-----------------------------------------| 
D|------14/13-let-ring------14-let-ring/13-| 
A|----12------------------12---------------| 
E|--11------------------11-----------------| 
B|-----------------------------------------| 

Pre Chorus (You wanna play that game bitch?!.) 
G|----------------------| 
D|----------------------| 
A|----------------------| 
E|----------------------| 
B|--4-2-5-2-4-2-5-4-4-2-|


Chorus (Stuck! Stuck! Deep down in that hole again!.) 
G|-------------------------| 
D|-------------------------| 
A|-------------------------|
E|-------------------------|
B|--2-2-9-8-2-2-4-2-5-2-4--|

Bridge (You're so stuck and you don't even know.) 
G|----------------| 
D|---6-5----------| 
A|--4---7-8-7-6-5-| 
E|----------------| 
B|----------------| 

after playing the bridge a buncha times, Fred says I got a little problem, you play: 
G|---------------| 
D|---------------| 
A|-x-4-x-4-4-4-4-| 
E|---------------| 
B|---------------| 

Fred Yells Why you gotta be like that?! Play this awhile: 
G|----------------------------------------| 
D|----------------------------------------| 
A|----------------------------------------| 
B|--2-2-9-8-2-5-2-4-4--2-2-9-8-2-5-2-444--| 

Pre Chorus (After: Stuck on yourself you are!) 
G|----------------------| 
D|----------------------| 
A|----------------------| 
E|----------------------| 
B|--4-2-5-2-4-2-5-4-4-2-| 

Chorus (Stuck! Stuck! Deep down in that hole again!.) 
G|-------------------------| 
D|-------------------------| 
A|-------------------------| 
E|-------------------------| 
B|--2-2-9-8-2-2-4-2-5-2-4--| 

and that's all folks. 
any questions or requests for tabs or lyrics, my email address is Hindubeef@hotmail.com


Comments