Limp Bizkit - Stinkfinger Chords & Tabs

 

Stinkfinger Chords & Tabs

Limp Bizkit Chords & Tabs

Version: 1 Type: Tab 0 ratings
1 star 2 stars 3 stars 4 stars 5 stars
comments

Stinkfinger Tab

   
Stinkfinger by Limp Bizkit
Guitarist: Wes Borland
Album: Three Dollar Bill YíAll
Dif.: 6
Tabbed by Twiggy5

NOTE: I know Wesís tuning is to C# but I have 7 string and I donít 
need to tune down to match what heís playing... So this tab is for 
a standard 7 string, if you have a 6 string just tune to Wesís 
tuning (C#, F#, B, E, G#, C#) and play two frets up

Intro/Verse (w/ delay)
B|---17---17-17-17-17---17-17----5---5-5-5-5---5-5--|
G|---18---18-18-18-18---18-18----6---6-6-6-6---6-6--|
[ Tab from: http://www.guitartabs.cc/tabs/l/limp_bizkit/stinkfinger_tab.html ]
Chorus (Guitar 2)
A|-----------------------------------------------------------|
E|--7/9--9--9--9\7--7---------7/9--9--9--9\7--7--------------|
B|--5/7--7--7--7\5--5--2--2---5/7--7--7--7\5--5-2--2--3^--2--|

Bridge (w/ effect) (either phaser or flanger or both, I donít know)
G|---------7---------------|
D|--------------------8----|
A|---6---------------------|

Interlude
A|--------9---------------------------|
E|--6--6--7-------5---9--10-10--/-11--|
B|--4--4----------3---7---8---8-/--9--|

Song Structure: -
Intro
Verse (w/lyrics)
Chorus
Intro
Verse (w/lyrics)
Chorus
Bridge
Interlude

There.. Very simple ass song. Ending is just Lethal.... 
If you have any comments, corrections or suggestions email me at 
ToXic345x@yahoo.ca
Comments