Limp Bizkit - Stalemate Chords & Tabs

 

Stalemate Chords & Tabs

Limp Bizkit Chords & Tabs

Version: 3 Type: Tab 0 ratings
1 star 2 stars 3 stars 4 stars 5 stars
comments

Stalemate Tab

   
Band: Limp Bizkit
Album: Three Dollar Bill Yall$
Song: Stalemate
Transcribed by: RipHead
Tuning (E A D G B E)
-----------------------------------------------------------------------------------------


Intro#1                                     the end of intro
e||-----------------------------------------||----------||
B||-----------------------------------------||----------||
G||--------------6-4h6------------6---------||----------||
D||----------4----------------4-----4h5-----||----------||
A||------4-4---4----------4-4---4-----------||-----4----||
E||---2-----------------2-------------------||-----2----||

Intro#2 (Verse#1 -> with pm and distortion)
e||-----------------------------------------||----------||
B||-----------------------------------------||----------||
G||-----------------------------------------||----------||
D||-----------------------------------------||----------||
A||-----------------------------------------||----------||
E||-22-2-2-2-2-222--------------------------||-222-2-22-||

Verse#2
e||-----------------------------------------------------||
B||-----------------------------------------------------||
G||-----------------------------------------------------||
D||---4^4--4^4--4^--------------------------------------||
A||---4-4--4-4--4---------------------------------------||
E||---2-2--2-2--2---------------------------------------||
[ Tab from: http://www.guitartabs.cc/tabs/l/limp_bizkit/stalemate_tab_ver_3.html ]
Chorus
e||-----------------------------------------------------||
B||-----------------------------------------------------||
G||-----------------------------------------------------||
D||---4--4--4-5-5\4--4-2/5------------------------------||
A||---4--4--4-5-5\4--4-2/5------------------------------||
E||---2--2--2-3-3\2--2-0/3------------------------------||

Fill
e||-----------------------------------------------------||
B||-----------------------------------------------------||
G||-----------------------------------------------------||
D||-----------------------------------------------------||
A||-----------------------------------------------------||
E||--222-222-2-222--------------------------------------||

Bridge#1
e||-----------------------------------------------------||
B||-----------------------------------------------------||
G||-----------------------------------------------------||
D||-----------------------------------------------------||
A||-----------------------------------------------------||
E||xx-22-44-555-5/4-4-xxxxx-----------------------------||

Bridge#2
e||-----------------------------------------------------||
B||-----------------------------------------------------||
G||-----------------------------------------------------||
D||-------------------------------------111112-12-10----||
A||-------10/11--11-12-12-12-1111-------9-9-10-10/9-----||
E||-xxxxx-7 /9-xx9 /10-10-10\9-9--xxxxx-----------------||
Comments