Limp Bizkit - Sour Chords & Tabs

 

Sour Chords & Tabs

Limp Bizkit Chords & Tabs

Version: 3 Type: Tab 0 ratings
1 star 2 stars 3 stars 4 stars 5 stars
comments

Sour Tab

SOUR - Limp Bizkit
CGill1403@aol.com
 ____
 )   \  Bend and release
/     \

Intro- when playing this riff, you want to tap the 12 & 11 notes on those frets
with your right hand, and tap the 2 and 4 notes in those frets with your left hand
C#|-----------------------------------|
G#|-----------------------------------|
B |--------11---------------11--------|
E |------4---------4------4---------4-|
F#|-----------------------------------|
C#|-12-2------2-12---12-2------2-12---|
[ Tab from: http://www.guitartabs.cc/tabs/l/limp_bizkit/sour_tab_ver_3.html ]
Verse 
C#|-----------------------------------------------------------------------------|
G#|-----------------------------------------------------------------------------|
B |-9h11-------11-------12--11---9h11--------9h11-------11---13------12------11-|
E |-----------------------------------------------------------------------------|
F#|--------9--------9-------------------------------9------------9-------9------|
C#|-----------------------------------------------------------------------------|

Chorus- fret tapping in this riff also- play w/ light distortion
C#|-------------------------------------------|
G#|-------------------------------------------|
B |--------11---------------11----------------|
E |------4---------4------4---------4--11/12~-|
F#|-------------------------------------------|
C#|-12-2------2-12---12-2------2-12-----------|

Play this the last time through
C#|-----------------------------------1/2_ _ _-----|
G#|-----------------------------------)-------\----|
B |--------11---------------11-------/---------\---|
E |------4---------4------4---------4----------(4)-|
F#|------------------------------------------------|
C#|-12-2------2-12---12-2------2-12----------------|
Comments