Limp Bizkit - Significant Other Chords & Tabs

 

Significant Other Chords & Tabs

Limp Bizkit Chords & Tabs

Version: 1 Type: Tab 0 ratings
1 star 2 stars 3 stars 4 stars 5 stars
comments

Significant Other Tab

   
Notes - Ok everyone, here's the tab for 'Significant other' by Limp Bizkit. I have been listening to this CD
practically non stop since I got it, I love it! Anyway, I have tabbed some of the songs, and the ones I 
I
probably will do soon. This file is by no means the final version - I will improve bits that I got wrong the
first time, get help from other people, etc........So please keep checking my web-site for newer versions.

I tabbed all of these while down 1 step and drop D ( I think - can't actually remember ). It sounds right, but
Wes could have just downtuned 2 steps. As for timing, hammer-ons, pull-offs, exact number of notes, and
palm muting - I will leave all that to you. I have done some of it, but I'm sure you can cope on your own -
I'm not your mother you know. Plus I couldn't be arsed to keeping typing every little bit.

Comments/suggestion - Me ( Rob H ) - basil_faulty25@yahoo.com

My ICQ number is 1553349

My web-site is at www.freak82.freeserve.co.uk My site is a joint effort between me and a friend, and you
can find all details about us on there. The music section is floating around the site somewhere - It is
currently in the 'whippet' section.

If you put this page on your site, please give me credit, Thanks :)

Tracks ( * = N/A )

1) intro*

2) just like this

3) nookie*

4) break stuff*

5) re-arranged ( bass riff )

6) i'm broke*

7) nobody like you

8) don't go off wandering

9) 9 teen 90 nine

10) n 2 gether now*

11) trust?*

12) no sex

13) show me what you got*

14) a lesson learned*

15) outro

2) Just like this

Intro:

x--------------------------------------------------------------------------|
x-----3----------------------------3---------------------------------------|
x--------------------------------------------------------------------------|
x--------------------------------------------------------------------------|
x--------------------------------------------------------------------------|
x-------0-----3-0-0-0-3-0-3-0-0-----0-----3-0-0-0-0-33334444---------------|

bit:

x---------------|
x---------------|
x---------------|
x---------------|
x----5---9-8----|
x---------------|

Weird tapping bit ( "Limp bizkits in the house y'all" )

Use the edge of the pick and tap one of the higher strings over the pickups, and move towards the neck.

Outro:

x---------------------------------------8-9-10------|
x---3---------3-----------3-------------------------|
x---------------------------------------------------|
x---------------------------------------------------|
x---------------------------------------------------|
x-----0-3-0-0---0-3-0-0---0-3-0-0-------------------|

3) Nookie

N/A

4) break stuff

N/A

5) Re-arranged ( Bass riff )

x-------------------------------------------------------|
x-------------------------------------------------------|
x-------------------------------------------------------|
x---------------------------------------------7---------|
x--------5-3-----3-4-5-2-----2-3-4-0------5-------------|
x----0-3------------------------------------------------|

6) i'm broke

N/A

7) Nobody like you

Intro/Outro:

x----------------------------------------------------------------|
x----------------------------------------------------------------|
x----------------------------------------------------------------|
x---0-0-0------0-1-0-0-------0-1-0-0------0-1-0-0--7^------------|
x---0-0-0------0-1-0-0-------0-1-0-0------0-1-0-0--5^------------|
x---0-0-0-<3>-0-1-0-0-<3>-0-1-0-0-<3>-0-1-0-0--------------------|


Mad bit

x----------------------------------------------3----------------|
x-----10 ( for a while )--10-11-13-13-11-8-8--4---3-4-6---------|
x---------------------------------------------------------------|
x---------------------------------------------------------------|
x---------------------------------------------------------------|
x---------------------------------------------------------------|

Tremlo pick the above

Chorus:
[ Tab from: http://www.guitartabs.cc/tabs/l/limp_bizkit/significant_other_tab.html ]
x-------------------------------------|
x-------------------------------------|
x-------------------------------------|
x---0-0-0-0-0-0-6-5-0-0-3-2-----------|
x---0-0-0-0-0-0-6-5-0-0-3-2-----------|
x---0-0-0-0-0-0-6-5-0-0-3-2-----------|

Next bit:

x-------------------------------------|
x-------------------------------------|
x-------------------------------------|
x-------------------------------------|
x----8-5-5-5-5-5-8-5-5-5-3-5----------|
x-------------------------------------|

Switch to power chords for when it gets louder.

8) Don't go off wandering

Intro:

x---------------|
x---------------| Something mad like this. Theres the odd palm mute in there too.
x---1-----------|
x---0-----------|
x---0-----------|
x---0-----------|


bit:

x--------------------|
x-----------3-1-3----|
x--------------------|
x------7-------------|
x----5---1-----------|
x--------------------|

Chorus:

x--------------|
x--------------|
x----7---3-----| Just these 2 chords
x----7---3-----|
x----5---1-----|
x--------------|

Next bit:

x--------------|
x------7---9---|
x--------------|
x----7---8-----|
x----5---6-----|
x--------------|

Then:

x---------------|
x---------------|
x---------------|
x------7-6------|
x----5-----4-5--|
x---------------|

x-------------------------------|
x-------------------------------|
x-------------------------------|
x----7-7--6-6--10-10--9-9-------|
x----5----4----8------7---------|
x-------------------------------|

9) 9 teen 90 nine

Intro - Bass

Chorus:

x-----------------------------------------------------------------|
x-----------------------------------------------------------------|
x-----------------------------------------------------------------|
x-----0-0-3-2-2-0-0-0-0-0-0-6-------------0-0-3-2-2-0-------------|
x-----0-0-3-2-2-0-0-0-0-0-0-6-------------0-0-3-2-2-0-------------|
x-----0-0-3-2-2-0-0-0-0-0-0-6-------------0-0-3-2-2-0-1^----------|

Then:

x------------|
x------------|
x----9-------|
x------9-----|
x------------|
x------------|

Next bit:

x------------|
x------------|
x------------|
x---0-0-0----|
x---0-0-0----|
x---0-0-0----|

Next bit:

x----------------------------------|
x----------------------------------|
x----------------------------------|
x---0-0-0-3-2-0-0-0-6-0-0-6--------|
x---0-0-0-3-2-0-0-0-6-0-0-6--------| Palm mute the two sets of '0's before the 6's.
x---0-0-0-3-2-0-0-0-6-0-0-6--------|

Next bit:

x-------------------------------------|
x-------------------------------------|
x-------------------------------------|
x---0-0-1-1-0-0--0-0---0-0-0-0--------|
x---0-0-1-1-0-0--0-0---0-0-0-0--------| Palm mute the last four
x---0-0-1-1-0-0--0-0---0-0-0-0--------|

10) n 2 gether now

N/A

11) trust?

N/A

12) no sex

Intro:

x-------------------------------|
x-------------------------------|
x-------------------------------|
x-----10-----6---8--------------|
x-------10----6---8-------------|
x---10------6---8---4-----------|

Pre chorus - same as above, but different timing

Chorus:

x---------------------------------------------------------------------------|
x---------------------------------------------------------------------------|
x----77777------------------------77777----------101010-111111--------------|
x----77777-88888-33333-22222-77777-88888--101010-111111---------------------|
x----55555-88888-33333-22222-55555-88888--8-8-8----9-9-9--------------------|
x------------88888-33333-22222--------88888---------------------------------|

Next bit:

x--------------------------------------------------------------------|
x--------------------------------------------------------------------|
x----777777777-------------------------------------------------------|
x----777777777--8-X 3 THEN --10-----11-------- Finally -12-----------|
x----555555555--8---------------10 X8-11 X8-------------12-----------|
x------------------8---------------10-----11-----------------12------|

After this it is the same for a while, but palm muted. Then it finishes on the 121212, thats it.

13) show me what you got

N/A

14) a lesson learned

N/A
Comments