Limp Bizkit - Significant Other Chords & Tabs

 

Significant Other Chords & Tabs

Limp Bizkit Chords & Tabs

Version: 1 Type: Bass Tab 0 ratings
1 star 2 stars 3 stars 4 stars 5 stars
comments

Significant Other Bass Tab

Just Like This

Intro-just drums then it leads into guitar.
G||------------------------||
D||------------------------||
A||------------------------||
E||------------------------||
B||------------------------||

Where everything kicks in
G||-----------------------------------------------------||
D||-----------------------------------------------------||
A||-4---------------------|-4---------------------------||
E||-----------------------------------------------------||
B||----2--3_2_0_2_3_2_2_3|---2---3-2-2--5_5_5_5-6_6_6_6-||

Play this as many times needed
G||---------------------------------||
D||---------------------------------||
A||-4-------------------------------|| 
E||---------------------------------|| 
B||----2--3-2-2--5_5_5_5-6_6_6_6-||
Repeat this - this is the main "rappy" part of the song

Back to the heavey rock out part
G||-----------------------------------------------------||
D||-----------------------------------------------------||
A||-4---------------------|-4---------------------------||
E||-----------------------------------------------------||
B||----2--3_2_0_2_3_2_2_3|---2---3-2-2--5_5_5_5-6_6_6_6-||
Play this as many times needed

This is the very end part
G||---------------------------------------||
D||---------------------------------------||
A||--4-------------4-5-6------------------||
E||---------------------------------------||
B||----2--3--2-0--------------------------||
____________________________________________________________
Nookie

Intro
G||------------------------||
D||------------------------||
A||------------------------|| x8
E||------------------------||
B||------------------------||

Where everything kicks in
G||--------------------------||
D||--------------------------||
A||--------------------------||
E||--------------------------||
B||--5-7-0_7---5-7-0_7-------||
Play this as many times needed

G||-----------12-12-------------------||
D||-----------------------------------||
A||-9 10 9--------------0-9-10---9-9--|| Repeat this
E||-----------------------------------||
B||-----------------------------------||
You have to slide up to the 9th - all the notes are in a basic on step, they all flow 
togeather.

" like a chump(hey).."
G||--------------------------------||
D||--------------------------------||
A||-9________________9-10----------||
E||--------------------------------||
B||--------------------------------||
Hold the ninth, then just go into the nine and tenth

G||-----------12-12-------------------||
D||-----------------------------------||
A||-9 10 9--------------0-9-10---9-9--|| Repeat this
E||-----------------------------------||
B||-----------------------------------||

Music picks up again, the rock out part
G||--------------------------||
D||--------------------------||
A||--------------------------||
E||--------------------------||
B||--5-7-0_7---5-7-0_7-------||
Play this as many times needed

G||-----------12-12-------------------||
D||-----------------------------------||
A||-9 10 9--------------0-9-10---9-9--|| Repeat this
E||-----------------------------------||
B||-----------------------------------||

G||--------------------------------||
D||--------------------------------||
A||-9________________9-10----------||
E||--------------------------------||
B||--------------------------------||

G||--------------------------||
D||--------------------------||
A||--------------------------||
E||--------------------------||
B||--5-7-0_7---5-7-0_7-------||
Play this as many times needed

changes to slow part here:
"i am only human..."
G||-------------------------------------------------------||
D||-2__4-4--4-4-4-4---2__4-4-4-4-4------------------------||
A||-------------------------------------------------------||
E||---------------------------------0-0-0---5-5-5-5-5-5_3-||
B||-------------------------------------------------------||
2 and 4 are all in one step _ reapeate this a few times

" just leave me alone..."
G||----------------------------------------------||
D||----------------------------------------------||
A||----------------------------------------------||
E||-----------5-5-5-5-7-7-7-7--------------------||
B||--7-7-7-7-------------------0-0-7-7---0_6_7---||

G||----------------------------------||
D||----------------------------------||
A||----------------------------------||
E||-10-10-10-10-10-10---14-14-14-----||
B||----------------------------------||
This is the last part of " leave me alone" it changes to this in the last measure and 
leads back into the first verse, "nookie!"

"Nookie!!"....
G||--------------------------||
D||--------------------------||
A||--------------------------||
E||--------------------------||
B||--5-7-0_7---5-7-0_7------||
Then after this part comes the little outro which is just the same as above.
____________________________________________________________
Break Stuff

G||------------------------||
D||------------------------||
A||------------------------||
E||------------------------||
B||------------------------||

G||----------------------------------------------------||
D||----------------------------------------------------||
A||-6*-----------6*------------*6------------*6--------||
E||----------------------------------------------------||
B||---------5-------------5------------5-------------5-||
Repeat this a few times, * = hold note

Its all about the he said , she said................
G||--------------------------------------------------||
D||--------------------------------------------------||
A||--------------------------------------------------||
E||--------------------------------------------------||
B||-3)----3)--3---3)----3)--3---3)----3)--3---3--4---||
reapeate this as many times as needed, ) = bend string

G||----------------------------------------------------||
D||----------------------------------------------------||
A||-6*-----------6*------------*6------------*6--------||
E||----------------------------------------------------||
B||---------5-------------5------------5-------------5-||
Repeat this a few times, * = hold note

We've all been treated like shit........
G||---------------------------|| Repeat this as many times 
D||---------------------------|| as needed.You have to roll 
A||---------------------------|| into the 3rd fret prett 
E||---------------------------|| fast, it goes with the  
B||-4_3--4_3--4_3--4_3--4_3---||   drums and the guitar.

Now Stop! Break your fuckin' face tonigh....." give me somethin to break!"
G||---------------------||
D||---------------------||
A||--6----6-6----6-6----|| Keep repeating this until needed, 
E||---------------------|| you will hear it end like this...
B||----4------4------4--||

So come and get it!........
G||------------||
D||------------||
A||--6*--------|| The part above ends like this.
E||------------||
B||----------5-||

Then back to this..............play this until the end!
G||--------------------------------------------------||
D||--------------------------------------------------||
A||--------------------------------------------------||
E||--------------------------------------------------||
B||-3)----3)--3---3)----3)--3---3)----3)--3---3--4---||
reapeate this as many times as needed, ) = bend string
____________________________________________________________
Re-arranged

S= slide down to next note
P= pull off to next note
* = hold that note for a quarter

Intro
G||-------------------------------------11--||
D||------11-9*--9p10s8---8*p9--------11-----||
A||---11--------------------------11--------|| Repeat, this 
E||-9---------------------------9-----------|| is the base  
B||-----------------------------------------|| to song.
* = hold note

This is played after the long first part......
G||-------------------------------------------||
D||-------------------------------------------||
A||-----------------------------6_6_6_6_6_6---||
E||-9_9_9_9_9_9_9_-7_7_7_7_7------------------||
B||-------------------------------------------||

These are plucked faster than shown
G||-------------------------------------11--||
D||------11-9*--9p10s8---8*p9--------11-----||
A||---11--------------------------11--------|| Repeat, this 
E||-9---------------------------9-----------|| is the base  
B||-----------------------------------------|| to song.
* = hold note

G||-------------------------------------------||
D||-------------------------------------------||
A||-----------------------------6_6_6_6_6_6---||
E||-9_9_9_9_9_9_9_-7_7_7_7_7------------------||
B||-------------------------------------------||

These are plucked faster than shown
Do this again - it sounds like the music changes but the bass stays the same, do this as 
many times as needed.........

G||-------------------------------------------||
D||-------------------------------------------||
A||-----------------------------6_6_6_6_6_6---||
E||-9_9_9_9_9_9_9_-7_7_7_7_7------------------||
B||-------------------------------------------||

This is where it sounds like everything stops, Sam playes octaves in this part, this 
repeats for a while.
G||----------------------------------------------------8-8||
D||---11----11'----11----11---11'----11---9----9'---9-----||
A||---------------------------------------------------6-6-||
E||-9-----9-----9'-----9-----9----9'-----7----7---7'------||
B||-------------------------------------------------------||

This is the "rock out " part, it kicks in right after the slow part.
G||-------------------------------------------||
D||-------------------------------------------||
A||---------------------------------6---6-7---|| Repeat for 
E||-9--9-9-9--9-9--9-9---7-7--7-7-------------|| a while.
B||-------------------------------------------||

G||-------------------------------------11--||
D||------11-9*--9p10s8---8*p9--------11-----|| Repeat this 
A||---11--------------------------11--------|| until the 
E||-9---------------------------9-----------|| end
B||-----------------------------------------||
* = hold note
____________________________________________________________
I'm Broke

I 'aint no joke, so you should get a pen.............
G||------------------------||
D||------------------------||
A||------------------------||
E||------------------------||
B||------------------------||

somebodys getting choked..........
G||-----------------------------------------||
D||-----------------------------------------||
A||-------4--------------------4------------|| Repeat
E||-----------------------------------------||
B||-2--2-----2---2--2----2--2-----2---2--2--||

Me Iam broke......
G||----------------------7-----------------||
D||-------------------9--------------------||
A||----------9p10p9------------------------|| repeat this a 
E||-------9---------------------9---7-6-5--|| few more times
B||--0*--------------------0*--------------||

G||-----------------------------------------||
D||-----------------------------------------||
A||-------4--------------------4------------|| Repeat
E||-----------------------------------------||
B||-2--2-----2---2--2----2--2-----2---2--2--||
[ Tab from: http://www.guitartabs.cc/tabs/l/limp_bizkit/significant_other_btab.html ]
Me Iam broke.............
G||----------------------7-----------------||
D||-------------------9--------------------||
A||----------9p10p9------------------------|| repeat this a 
E||-------9---------------------9---7-6-5--|| few more times
B||--0*--------------------0*--------------||
you have to pull off to the tenth then back into the 9th

you said you'd pay me back.......
G||---------------------------|| No bass here, just Wes 
D||---------------------------|| playing a low A
A||---------------------------||
E||---------------------------||
B||---------------------------||

Then leads into the heavy part, "you said you'd pay me back...."
G||---------------------------------------------------||
D||---------------------------------------------------||
A||---------------------------------------------------|| 
E||---------------------___9--------------------___9--||
B||-2---2-2-2-2-2--2-2------2---2-2-2-2-2--2-2--------||
you have to slide up to the ninth fret and hold for a second

Play this part a little more "groovin" then the other times
G||----------------------7-----------------||
D||-------------------9--------------------||
A||----------9p10p9------------------------|| 
E||-------9---------------------9---7-6-5--|| 
B||--0*--------------------0*--------------||

Then back into the heavier part........
G||---------------------------------------------------||
D||---------------------------------------------------||
A||---------------------------------------------------|| 
E||---------------------___9--------------------___9--||
B||-2---2-2-2-2-2--2-2------2---2-2-2-2-2--2-2--------||

To end it at the very end, you just hammer these notes
G||--------------||
D||--------------||
A||--------------||
E||--------------||
B||-2-2---2-2-2--||
____________________________________________________________
Nobody Like You

G||------------------------||
D||------------------------||
A||------------------------||
E||------------------------||
B||------------------------||

begging w/bass- everything kicks in here..
G||-----------------------------------------||
D||-----------------------------------------||
A||----5---------5----------5----------5----|| Repeat
E||-----------------------------------------||
B||-3-----3 ~ 3-----4-3---3----4-3-3-3------||
~ = ghost note, you are supose to hit that note but you dont

" I'am convinced, that you hate me........."
G||-------------------------------||
D||-----------------------------3-||
A||-----------3--3------------3---|| repeat
E||-----0_2_3----------0_2_3------||
B||-2----------------2------------||

This is after Jonathan Davis' part, its the chorus......
G||--------------------------||
D||--------------------------||
A||--------------------------|| Repeat
E||---------------3*-2-1-0---||
B||-2 ^ ^--2^ ^-----------4--||
^ = palm mutes, you are going to slap them with your thumb. * = hold

G||-------------------------------||
D||-----------------------------3-||
A||-----------3--3------------3---|| repeat
E||-----0_2_3----------0_2_3------||
B||-2----------------2------------||

G||---------------------------||
D||---------------------------||
A||---------------------------|| Repeat
E||---------------3*-2-1-0----||
B||-2 ^ ^--2^ ^-----------4---||

This is the part is goes into the drum/guitar part.......play it really mello
G||---------------------||
D||---------------------||
A||---------------------|| keep going until it gets heaver 
E||---------------------|| and leads into the bottom part.
B||-2*---------7-6-5-4--||
hold the 2, then slide up to the 7th then follow down......

" no fuckin reason...."
G||----------------||
D||----------------||
A||------------5---|| kepp repeating this.....until chorus
E||----------------||
B||-3-2-0-2-3------||

Back to this then to the begging..
G||---------------------------||
D||---------------------------||
A||---------------------------|| Repeat
E||---------------3*-2-1-0----||
B||-2 ^ ^--2^ ^-----------4---||

Then back to the begging part......
G||-----------------------------------------||
D||-----------------------------------------||
A||----5---------5----------5----------5----|| Repeat
E||-----------------------------------------||
B||-3-----3 ~ 3-----4-3---3----4-3-3-3------||
____________________________________________________________
9 Teen 90 Nine

G||------------------------||
D||------------------------||
A||------------------------||
E||------------------------||
B||------------------------||

everything kicks in here..
G||-----------------------||
D||-----------------------||
A||-------------------2---|| Repeat
E||---------------2_4-----||
B||-2-2--4_3_2-2----------||

fame i am claimn' is the top of the world.....
G||-------------------------------||
D||-------------------------------||
A||-------------------------------|| Repeat
E||-6*-------6*-------6*------6*--||
B||--------0---------0-------0----||

So lets make something out of it.....
G||-----------------------||
D||-----------------------||
A||-------------------2---|| Repeat
E||---------------2_4-----||
B||-2-2--4_3_2-2----------||

Hate, a feelin', I dont really get........
G||-------------------------------||
D||-------------------------------||
A||-------------------------------|| Repeat
E||-6*-------6*-------6*------6*--||
B||--------0---------0-------0----||

So lets make something out of it.....
G||-----------------------||
D||-----------------------||
A||-------------------2---|| Repeat
E||---------------2_4-----||
B||-2-2--4_3_2-2----------||

This is the part where it slows down and the drum fills come in.....
G||-----------------------||
D||-----------------------||
A||-----------------------||
E||-----------------------||
B||-6-5-4-3-2---<2-2-2>---||
notes in the  mean that you are going to hammer them with your thumb...

Fred screams, music stops and then it goes into this......
G||----------------------------------------||
D||----------------------------------------||
A||----------------------------------------|| Repeat
E||----------------------------------------||
B||-2---2-2-2----8--8---2---2-2-2----8--8--||

Got to be down with the ......
G||---------------------------||
D||---------------------------||
A||---------------------------|| Repeat
E||------------<-7---7-7-7>---||
B||-2-3-2--2--<-0---0-0-0->---||
you are going to play the 7th note on this part, but you have to hammer this and make 
sure you hit the open B with it......

G||----------------------------------------||
D||----------------------------------------||
A||----------------------------------------|| Repeat
E||----------------------------------------||
B||-2---2-2-2----8--8---2---2-2-2----8--8--||

And to end it, Its 1999..............
G||---------------------------||
D||---------------------------||
A||---------------------------|| Repeat
E||------------<-7---7-7-7>---||
B||-2-3-2--2--<-0---0-0-0->---||
____________________________________________________________
N 2 Gether Now

G||-----------------------|| 
D||-----------------------|| 
A||-----------------------|| 
E||--6--6-4--4--2-2-2-----|| 
____________________________________________________________
Trust?

Tune down low E 1 1/2 steps the rest of the guitar 1/2 step

Pre-Verse
Db|| -----------------------------------------------------||
Ab||------------------------------------------------------||
Db||1-0-1-0-1-1-1-0-1-0-1-1-1-0-1-0-1-1---5-0-5-0-5-6-----||

Verse
Db||--------------|| 
Ab||--------------|| play quickly and repeatedly
Db||--1-1-0-------||

Chorus
Db||------------------------------------------------------||
Ab||------------------------------------------------------||
Db||1-0-1-0-1-1-1-0-1-0-1-1-1-0-1-0-1-1--5-0-5-0-5-6------||

Gb||-------------------------------------||
Db||--------------------------15----13---||
Ab||-----------------18---16-------------||
Db||-13--12-----16-----------------------||

Post Bridge
Db||------------------------------------||
Ab||------------------------------------||
Db||-0-0-1-0-0---------0-0-1-0-0--------||

Outro
Db||------------------------------------------------------||
Ab|| -----------------------------------------------------||
Db||1-0-1-0-1-1-1-0-1-0-1-1-1-0-1-0-1-1--5-0-5-0-5-6------||

Interlude
Db||------------------|| repeat til done
Ab||------------------||
Db||-2--4---2--4------||
____________________________________________________________
No Sex

Tuned down 1 1/2 steps

Db||-----------------------||
B#||-----------------------||
F#||-5---1--3--------------||
Db||--------------4--------||

Chorus
Db||--------------------------------------------------------    --------------------||
B#||--------------------------------------------------------    --------------------||
B ||2-2-2--------------5-5-5--0-2-5----2-2-2----------------    5-5-5---------------|| 
F#||-------3-3-3-3----------------------------------3-3-3---    -----------5-7-10---||

Bridge
Db||---------------------------||
B#||-2-2/5--7-0----------------|| repeat as needed
F#||---------------------------||
Db||---------------------------||
____________________________________________________________
No Sex version 2

Standard
G||-----------------------||
D||-----------------------||
A||-2------0--------------||
E||-----3------1----------||

Chorus
G||---------------------------------------------------------   ------------||
D||---------------------------------------------------------   ------------||
A||----------------3-3-3-------------------3-3-3------------   ------------||
E||4-4-4--0-0-0-0---------2-4-7---4-4-4-----------0-0-0-0---   ---2-4-7----||

Bridge
G||-------0--------------------||
D||----------------------------|| repeat
A||-5-5/8---3------------------||
E||----------------------------||
____________________________________________________________
Show Me What You Got

play 1 time 
E ||-------------------------------------|| 
B ||-------------------------------------|| 
F#||-------------------------------------|| 
C#||--00-66----00-66----00-66----00-66---|| 

When he is rapping it sounds like these two notes.. 
I think this is right. 
play this a bunch of times. 
E ||-------------------------------|| 
B ||---------------11/10-----------|| 
F#||---------------11/10-----------|| 
C#||-------------------------------|| 

E ||-------------------------------------|| 
B ||-------------------------------------||
F#||-------------------------------------|| 
C#||--00-66----00-66----00-66----00-66---|| 

E ||-------------------------------------|| 
B ||-------------------------------------|| 
F#||-------------------------------------|| 
C#||--00-66----00-66----00-66----00-66---|| 

I can't help...... 
E ||------------------------------|| 
B ||---------------11/10----------|| 
F#||---------------11/10----------|| 
C#||------------------------------|| 

E ||-------------------------------------|| 
B ||-------------------------------------|| 
F#||-------------------------------------|| 
C#||--00-66----00-66----00-66----00-66---|| 

Hey Ladies.... 
E ||-------------------------------------|| 
B ||-------------------------------------|| 
F#||-------------------------------------|| 
C#||--00-66----00-66----00-66----00-66---||
Comments