Limp Bizkit - Rollin Chords & Tabs

 

Rollin Chords & Tabs

Limp Bizkit Chords & Tabs

Version: 7 Type: Tab 0 ratings
1 star 2 stars 3 stars 4 stars 5 stars
comments

Rollin Tab

Limp Bizkit,Rollin(official).
Tabbed by Josh Rogers,skynyrd15@msn.com.
  
Key of C#
Intro                                     8 times
D#----------------------------------------------------
A#----------------------------------------------------
F#----------------------------------------------------
C#-7-7-7-3-3-3-0-0-0----------------------------------
G#-7-7-7-3-3-3-0-0-0----------------------------------
C#-7-7-7-3-3-3-0-0-0----------------------------------

Verse
D#----------------------------------------------------
A#----------------------------------------------------
F#----------------------------------------------------
C#----------------------------------------------------
G#------------12--------------------------------------
C#-12-12-12-12---17-17-17-15-15-15-14-14-12/-12/-12/--

Second Guitar in the verse  with delay and clean tone
[ Tab from: http://www.guitartabs.cc/tabs/l/limp_bizkit/rollin_tab_ver_7.html ]
D#------5----------------------------
A#------6-------6--------------------
F#--------------7--------------------
C#-----------------------------------Repeat 4 times 
G#-----------------------------------(i think)
C#-----------------------------------

Chrous   heavy distortion    4times
D#---------------------------------------------------
A#---------------------------------------------------
F#---------------------------------------------------
C#-0-0-0-7-7-7-5-5-5-3-3-0-0-2-0-3-----12/--12/--12/-
G#-0-0-0-7-7-7-5-5-5-3-3-0-0-2-0-3-----12/--12/--12/-
C#-0-0-0-7-7-7-5-5-5-3-3-0-0-2-0-3-----12/--12/--12/-

Hey Ladies HEy.......  part
D#--------------------------
A#--------------------------
F#--------------------------
C#-12/-----12/-----------12/
G#-12/-----12/-----------12/
C#-12/-----12/-----------12/

Thats the very same way wes boreland plays it i got it off watching the video and comparring tabs.
Song Order
Introx8
Chrous Riffx4
Verses RiffsX?
Intro RiffX4
ChrousX4
Verses riffsX?
Intro RiffX4
ChrousX4
Hey Ladies Hey.....PartX1
chrousX4
well that should be it,the song order might be off a little bit,but you will figure it out.email me of you have any problems 
:: Ultimate Guitar Archive :: 
http://www.ultimate-guitar.com 

Comments