Limp Bizkit - Rollin Chords & Tabs

 

Rollin Chords & Tabs

Limp Bizkit Chords & Tabs

Version: 12 Type: Tab 0 ratings
1 star 2 stars 3 stars 4 stars 5 stars
comments

Rollin Tab

transcribed by: Andrew M. Dunnington
Drop d tunning

  1 + 2 + 3 + 4 +]
e----------------]
b----------------]
g----------------]
d-0-0-7-7-5---3-3]
a-0-0-7-7-5---3-3]
d-0-0-7-7-5---3-3]
[ Tab from: http://www.guitartabs.cc/tabs/l/limp_bizkit/rollin_tab_ver_12.html ]
  1 + 2 + 3 + 4 +]
e----------------]
b----------------]
g----------------]
d-0-3-2---0-0----]
a-0-3-2---0-0----]
d-0-3-2---0-0----]

  1 + 2 + 3 + 4 +]
e----------------]
b----------------]
g----------------]
d-0-0v-----------]
a-0-0v-----------]
d-0-0v-----------]

Any comments or corrections
just email me at 
fender_bender_rocker@yahoo.com
Comments