Limp Bizkit - Rollin Chords & Tabs

 

Rollin Chords & Tabs

Limp Bizkit Chords & Tabs

Version: 10 Type: Tab 0 ratings
1 star 2 stars 3 stars 4 stars 5 stars
comments

Rollin Tab

#----------------------------------PLEASE NOTE--------------------------------#
#This file is the author's own work and represents their interpretation of the#
#song. You may only use this file for private study, scholarship, or research.#
#-----------------------------------------------------------------------------#
#-- File created with Instab - http://www.pconline.com/~smcarey/instab.html --#
#-----------------------------------------------------------------------------#

Author/Artist: Limp Bizkit
Title: Rollin
Album: Chocolate Starfish And The Hotdog Flavored Water
Transcribed by: Tabshaman
Email: Tabshaman@web.de

I can't believe how much crap is posted on this 
cool site. Listen first of all you bunch have to tune 
down yo' gitarz 1 and 1/2 Step. That means that
after ur dunn doing this the strings should be tuned 
this way: C# -  F# -  B- E- G# - C ! OK. here is the 
Rollin' Version fo' dummies(look for the lyrics at
www.homestead.com/wfsjl/tabs.html):
[ Tab from: http://www.guitartabs.cc/tabs/l/limp_bizkit/rollin_tab_ver_10.html ]
------------------------------------------------------------------------------
------------------------------------------------------------------------------
------------------------------------------------------------------------------
------111111------------------------------------------------------------------
-9-9-9-9-9-9-12-12-12-12------------------------------------------------------
-7-7-7-------10-10-10-10------------------------------------------------------
 Hey that just sounded like the intro! HALELLUJA!(all metalfans start 3/5...  

------------------------------------------------------------------------------
------------------------------------------------------------------------------
------------------------------------------------------------------------------
------------------------------------------------------------------------------
-9-9-9-9\16-16-16-16/14-14-14-14/12-12-12-12/b9--b9---------------------------
-7-7-7-7\14-14-14-14/12-12-12-12/10-10-10-10/b7--b7---------------------------
 Thats the Chorus the Verses between are the same but palm muted              

------------------------------------------------------------------------------
------------------------------------------------------------------------------
------------------------------------------------------------------------------
------------------------------------------------------------------------------
-9////////////////5-----------------------------------------------------------
-7////////////////3-----------------------------------------------------------
                                                                              


Comments