Limp Bizkit - Rollin Chords & Tabs

 

Rollin Chords & Tabs

Limp Bizkit Chords & Tabs

Version: 1 Type: Tab 0 ratings
1 star 2 stars 3 stars 4 stars 5 stars
comments

Rollin Tab

This is just my version,(The others I've seen were not 100% accurate.) 


Intro  drop D tuning

Play along with the song so you can learn the style.       

1-----------------------------------
2-----------------------------------
3-----------------------------------
4----9-9-9----16-16-16----12-12-12--
5----9-9-9----16-16-16----12-12-12--
6----9-9-9----16-16-16----13-12-12--

(three times)

[ Tab from: http://www.guitartabs.cc/tabs/l/limp_bizkit/rollin_tab.html ]
1----------------------------------------------------------------
2----------------------------------------------------------------
3----------------------------------------------------------------
4----9-9----16-16----14-14----12-12----11----7----9f----9f-------
5----9-9----16-16----14-14----12-12----11----7----9f----9f-------
6----9-9----16-16----14-14----12-12----11----7----9f----9f-------


This is my first attempt at tabbing a song. Probably not my last,
So if you don't like it, get used to it.  If you have a complaint, 
or you would like to give me some friendly, constructive criticism, 
just e-mail me at iheartkelsey@hotmail.com.
Please don't send death threats.  Well, Ok. Those are accepted too.
Comments