Limp Bizkit - Rollin Chords & Tabs

 

Rollin Chords & Tabs

Limp Bizkit Chords & Tabs

Version: 6 Type: Bass Tab 0 ratings
1 star 2 stars 3 stars 4 stars 5 stars
comments

Rollin Bass Tab

Rollin' (Air Raid Vehicle) - Limp Bizkit

By: Jon Craven (i_apathy@hotmail.com)
Write me if you have questions, comments, corrections, want .midi samples of
each riff, or have a tab request.

(4/4)(96/97 bpm)
5-string in standard tuning

Note:
  -The tempo seems to be 97 bpm but it seems a little fast and 96 is too slow.

\ - slide down
r - eighth rest
|-R-| - rest for one measure
R - quarter rest

Intro 1 (0:00)

Intro 2 (pre-choruses): (x8)(0:06)(palm-muted)
|----------------|
|----------------|
|----------------|
|------4-4-4-----|
|2-2-2-------5-5-|

Intro 3 (choruses/verse 2/outro chorus pt.2): (x4)(0:26)
|----------------|----------------|
|----------------|----------------|
|----------------|----------------|
|---44422220000-2|----------------|
|222-----------4-|2-\-r-2-\-r-2-\-|

Verse 1: (0:46)
|----------------|----------------|----------------|----------------|
|----------------|----------------|----------------|----------------|
|----------------|----------------|----------------|----------------|
|---------------2|----------------|---44422220000-2|----------------|
|R---R---R---224-|2-\-r-2-\-r-2-\-|222-----------4-|2-\-r-2-\-r-2-\-|
[ Tab from: http://www.guitartabs.cc/tabs/l/limp_bizkit/rollin_btab_ver_6.html ]
|----------------|----------------|----------------|----------------|
|----------------|----------------|----------------|----------------|
|----------------|----------------|----------------|----------------|
|---44422220000-2|----------------|---44422220000-2|----------------|
|222-----------4-|2-\-r-2-\-r-2-\-|222-----------4-|2-\-r-2-\-r-2-\-|

Pre-chorus 1 (x4)(1:05)
Chorus 1 (x4)(1:15)
Verse 2 (x4)(1:36)
Pre-chorus 2 (x4)(1:55)
Chorus 2 (x4)(2:05)

Bridge: (2:26)
|---|----------------|---|----------------|
|---|----------------|---|----------------|
|---|----------------|---|----------------|
|---|----------------|---|----------------|
|-R-|2-\-r-2-\-r-R---|-R-|2-\-r-2-\-r-R---|

|---|----------------|---|----------------|
|---|----------------|---|----------------|
|---|----------------|---|----------------|
|---|----------------|---|----------------|
|-R-|2-\-r-2-\-r-R---|-R-|2-\-R---R---R---|

Outro chorus pt.1: (2:45)
|----------------|----------------|----------------|----------------|
|----------------|----------------|----------------|----------------|
|----------------|----------------|----------------|----------------|
|---44422220000-2|----------------|---44422220000-2|----------------|
|222-----------4-|2-\-r-2-\-r-2-\-|222-----------4-|2-\-r-2-\-r-2-\-|

|----------------|----------------|----------------|----------------|
|----------------|----------------|----------------|----------------|
|----------------|----------------|----------------|----------------|
|----------------|----------------|----------------|----------------|
|R---R---R---2-\-|R---R---R---2-\-|R---R---R---2-\-|R---R---R---2-\-|

Outro chorus pt.2 (x4)(3:05)
Rest till end
Comments