Limp Bizkit - Rollin Chords & Tabs

 

Rollin Chords & Tabs

Limp Bizkit Chords & Tabs

Version: 1 Type: Bass Tab 0 ratings
1 star 2 stars 3 stars 4 stars 5 stars
comments

Rollin Bass Tab

Band- Limp Bizkit
Song- Rollin
Album- Chocolate Starfish and the Hod Dog Flavored Water
Tabbed by- Jetplane42

(this is for a 5 string)
G---------------------------------------------------------------
D---------------------------------------------------------------
A---------------------------------------------------------------
E--------4-4-4------------4-4-4-2-2-2---------------------------
B--2-2-2-------5-5--2-2-2-------------5-4h5--\2--(5)\2--(5)\2---
[ Tab from: http://www.guitartabs.cc/tabs/l/limp_bizkit/rollin_btab.html ]
Chorus    
G-----------------------------------------------------------------------
D-----------------------------------------------------------------------
A------------------------------------------4-7--------------------------
E-----4-4-2-2---------------------------|----------------------------|--
B-2-2---------5-4h5--\2--(5)\2--(5)\2----------(5)\2--(5)\2--(5)\2------


G|--------------------
D|--------------------
A|--------------------
E|--------------------
B|--(5)\2--(5)\2------
Comments