Limp Bizkit - Relentless Chords & Tabs

 

Relentless Chords & Tabs

Limp Bizkit Chords & Tabs

Version: 1 Type: Tab 0 ratings
1 star 2 stars 3 stars 4 stars 5 stars
comments

Relentless Tab

   
Lartones@hotmail.com

Artist:Limpbizkit
Song:Relentless

drop d tuning

intro/verse

d -------------------------------
a -------------------------------
f--------------------------------
c -------------------------------
g 6-4-6-4-7-6-4-6-4-6-4-4-7-6-4-6
d -------------------------------

chorus(heavy part)
[ Tab from: http://www.guitartabs.cc/tabs/l/limp_bizkit/relentless_tab.html ]
d -------------------------------
a -------------------------------
f -------------------------------
c 6-4-6-4-7-6-4-6-4-6-4-4-7-6-4-6
g 6-4-6-4-7-6-4-6-4-6-4-4-7-6-4-6
d 4-2-4-2-5-4-2-4-2-4-2-2-5-4-2-4

bridge

d -------------------------------------------
a -------------------------------------------
c -------------------------------------------
c 12-12-12/9-9-9-9/7-7-7/4/8/5/4/5-5-5-5-5-5-
g -x--x--x/--x-x-x-x-x-x-----------x-x-x-x-x-
d 10-10-10/7-7-7-7/5-5-5/2/6/3/2/3-3-3-3-3-3-
Comments