Limp Bizkit - Rearranged Chords & Tabs

 

Rearranged Chords & Tabs

Limp Bizkit Chords & Tabs

Version: 3 Type: Bass Tab 0 ratings
1 star 2 stars 3 stars 4 stars 5 stars
comments

Rearranged Bass Tab

re-arranged
limp bizkit
tabbed by jamie hope of fleef
This is a sick song

Riff 1

G|-------------------------11
D|---11-9--9h10-8--8h9---11--
A|-11------------------9-----
E|9--------------------------
B|---------------------------

Riff 2

G|-----------------------
D|-----------------------
A|---------------666-9999
E|999999999-77777--------
B|-----------------------

Riff 3
[ Tab from: http://www.guitartabs.cc/tabs/l/limp_bizkit/rearranged_btab_ver_3.html ]
G|-------------------------8-8-
D|-11-11-----11-11----9-9------
A|------------------------6-6-6
E|9--9--9--9---9--9--7-7-7-----
B|-----------------------------

Riff 4

G--------------------------------------
D--------------------------------------
A------------------------------66666666
E99999999999999999999-777777777--------
B--------------------------------------

Listen to cd to get the riff order and rythem for last riff !!!




Comments