Limp Bizkit - Re Entry Chords & Tabs

 

Re Entry Chords & Tabs

Limp Bizkit Chords & Tabs

Version: 1 Type: Tab 0 ratings
1 star 2 stars 3 stars 4 stars 5 stars
comments

Re Entry Tab

   
Limp Bizkit
"Re-Entry"



Tuning: C#-F#-B-E-G#-C#


  

[ Tab from: http://www.guitartabs.cc/tabs/l/limp_bizkit/re_entry_tab.html ]
Intro: w/heavy dist.
 |------------------------------------------------|
 |------------------------------------------------|x2
 |------------------------------------------------|
 |-7-7---------------------5----------------------|
 |-5-5-6p5p0-5p0-5p0-6p5p0-3--6p5p0-5p0-5p0-6p5p0-|
 |------------------------------------------------|
                                                                              
  Fill.1: w/heavy dist
 |----------|
 |----------|
 |-10---9---|
 |---9---8--|
 |----8---7-|
 |----------|
                                                                              
  Verse: w/dist  trem pic
 |-----------------------------15--------------|
 |---------------15-------------------------15-|
 |-12------------------------------------------|
 |---------------------------------------------|
 |---------------------------------------------|
 |---------------------------------------------|


 |---|
 |---|
 |-7-|end chord
 |-7-|
 |-5-|
 |---|
                                        
Comments