Limp Bizkit - Re Arranged Chords & Tabs

 

Re Arranged Chords & Tabs

Limp Bizkit Chords & Tabs

Version: 5 Type: Tab 0 ratings
1 star 2 stars 3 stars 4 stars 5 stars
comments

Re Arranged Tab

   
#----------------------------------PLEASE NOTE---------------------------------#
#This file is the author's own work and represents their interpretation of the #
#song. You may only use this file for private study, scholarship, or research. #
#------------------------------------------------------------------------------#

Band: Limp Bizkit
Song: Re-arranged
Tabbed by: Taxi-Gurl... blinkin_park@hotmail.com

This took me.. not that long to figure out..
And by the way, this is guitar tab, not bass.

VERSES:

G|----------------|
D|--14-11-11-11---|
A|----------------|

Do that until the verse finishes, and time the picking rite as well.

PRE-CHORUS: (But you don't understand when...)

B|-------------------|
G|--13-13-13-13-x-14-|
D|-------------------|
A|-------------------|

Also do that until it finishes.

CHORUS:

B|-----------------------|
G|-----------------------|
D|--11-11--14-14--11-11--|
A|-----------------------|

Do that till chorus finishes.

VERSE (1x)
PRE-CHORUS (1x)
CHORUS (2x)

After chorus, comes the freakin hard BRIDGE.

BRIDGE: ( you gotta time this real right to make it sound proper)

You're no good.. for me.. 
D|--13-11--|  (Gotta listen real close for this one..) 

Thank God it's over...

B|-------------------------------------------|
G|------------------18/16---20-20-20--20/21--|
D|--13-14---13h14----------------------------|
A|-------------------------------------------|

You make believe..

B|------------------------------------------------------|
G|---------18--18-18-18------------16----20-20-20-20/21-|
D|--13-14------------------13-11------------------------|
A|------------------------------------------------------|

Do that 2x
Then..

I'm guessing the number of picks, but you do it.
          
B|---------------------------------------------------------|
G|---------18--18-18-18----16-16-16-16---20-20-20-20/21----|
D|--13-14--------------------------------------------------|
A|---------------------------------------------------------|

You think that every..body's the same

G|-------------------------------------------------|
D|-11-11-11-11-11-11-11-11----9-9-9-9-9-9-9-9------|
A|-11-11-11-11-11-11-11-11----9-9-9-9-9-9-9-9------|
E|--9--9--9--9--9--9--9--9----7-7-7-7-7-7-7-7------|

Play 4x
[ Tab from: http://www.guitartabs.cc/tabs/l/limp_bizkit/re_arranged_tab_ver_5.html ]
** And note, there are 3 chords that are played during this, but i dunno what the last one is...if   anyone does, email me **

At the end.. (Fred Durst kinda yells here..)

G|-----------------------------|
D|-11----6--7--6-----11--------|
A|-11----6--7--6-----11--------|
E|--9----4--5--4------9--------|

Just think about it... You'll get it...

==========================================================================================================

its pretty easy, standard tuning    
h=hammer on
p=pull of

e--------------------------------------------------------------
B--------------------------------------------------------------
G---------------------------------2-----------------------------
D-----2--0----0h2p0-------------2-------------------------------
A---2---------------4--4h5p4--0---------------------------------
E-0-------------------------------------------------------------

==========================================================================================================

here is just the intro

G--------------------------------------------------------------------
D----------------------------7---------------------------------------
A------0-7-5--5h6-4--4h5-0-7-----------------------------------------
E----0---------------------------------------------------------------

============================================================================================================
Rearranged - Limp Bizkit

alright i'm sorry if i offend anyone but quite franquily the other 
submisions really sucked, and badly, (you see they were deaf)
tuned to: D,A,D,G,B,E
{----------------------------------------}
{----------------------------------------}
{----------------------------------------}
{-------------------------------------0--}
{------0h5--3---3h5p3\2--2h4p2-----------}
{---0---------------------------5--0-----}

sorry i don't have anything else but i'm busy playing games or talking
to girls you know the usual things that guys do...
e-mail me only if theres something wrong at: escrockett@hotmail.com

==========================================================================================================
Rearrenged:

this is the bass converted to guitar intro riff

e------------------------------
B------------------------------
G------------------------------
D--------------------------7---
A-----5--3--3h5p2-2h3p0--5-----
E-0-3--------------------------

Comments