Limp Bizkit - Re Arranged Chords & Tabs

 

Re Arranged Chords & Tabs

Limp Bizkit Chords & Tabs

Version: 3 Type: Tab 0 ratings
1 star 2 stars 3 stars 4 stars 5 stars
comments

Re Arranged Tab

   
Limp Bizkit-Significant Other
SONG: Re-Arranged

Verse
"Lately i've been sceptical..."
a||----------------------||
F||--6-----6------6------||
C||----7-7---7-7-7--7-7--||

Riff A
"But you don't understand..."
a||-----------------------||
F||--10-----10-----11-11--||
C||-----7-7----7-7--------||

Chorus
"you and me,were through..."
a||-------------------||
F||--6-----7-----6----||
C||----7-----6-----7--||
[ Tab from: http://www.guitartabs.cc/tabs/l/limp_bizkit/re_arranged_tab_ver_3.html ]
Riff B                     2x
"You make beleive..."
a||---------------------|----------------------|-----------------|
F||--12-----------------|-10-----10-------10---|-13-----13-------|
C||-----7-7----7-7-8-7--|----7-7----7-7-8----7-|----7-7----7-7-8-|

a||--------||
F||--13----||
C||-----7--||

Riff C
"i don't think that anybody..."
C||--4-4-4-4--2-2-2-2--5-5-5-5--||
G||--4-4-4-4--2-2-2-2--5-5-5-5--||
D||--2-2-2-2--0-0-0-0--3-3-3-3--||
A||-----------------------------||

Outro

a||-----------|----------13-----------||
F||----10/11--|----10/11----10/11\10--||
C||--7--------|--7--------------------||
Comments