Limp Bizkit - Re Arranged Chords & Tabs

 

Re Arranged Chords & Tabs

Limp Bizkit Chords & Tabs

Version: 1 Type: Tab 0 ratings
1 star 2 stars 3 stars 4 stars 5 stars
comments

Re Arranged Tab

#----------------------------------PLEASE NOTE--------------------------------#
   #This file is the author's own work and represents their interpretation of the#
   #song. You may only use this file for private study, scholarship, or research.#
   #-----------------------------------------------------------------------------#


   Author/Artist: limp bizkit
   Title: re-arranged`
   Album: signicant other
   Transcribed by: dave
   Email: zer0@comports.com

   any comments wold be great since i spent a hell of a lot of time on this tab
   tuning: C# F# B E G# C# (low to high) (official limp bizkit tuning)

   the bass riff (arrange for guitar)
   ------------------------------------------------------------------|
   ------------------------------------------------------------------|
   -------------------------------2----------------------------------|
   -----------------------------2------------------------------------|
   -----7-x-5---3h5p3/4-4h5p4-0--------------------------------------|
   -0-7--------------------------------------------------------------|

   verse: prechorus: chorus:
   ----------------------|---------------|--------------------------|
   -8-------8------------|-12-12-12-x-13-|--------------------------|
   ---9-9-9---9-9-9-9-9--|---------------|--------------------------|
   ----------------------|---------------|--------------------------|
   ----------------------|---------------|--------------------------|
   ----------------------|---------------|-12-12-12-12-15-15-15-15--|
[ Tab from: http://www.guitartabs.cc/tabs/l/limp_bizkit/re_arranged_tab.html ]
   bridge:
   ---------------|-----------------------------10-----13---15------|
   ---------------|-------------------------------------------------|
   ---------------|-12-13-13-12h13-13-12h13-9/7----9----------------|
   ---------------|-------------------------------------------------|
   ---------------|-------------------------------------------------|
   -0-0-0-0-0-0-0-|-------------------------------------------------|

   Bridge: (cont.)
   ----------12----------12-------------10--------------------------|
   -----------------------------------------------------------------|
   -11\12-12----11\12-12----12-12/11-11-----------------------------|
   -----------------------------------------------------------------|
   -----------------------------------------------------------------|
   -----------------------------------------------------------------|

   ending: (you ruined everything.. you kept fuckin' with me.. ect.)
   -----------------------------------------------------------------|
   -----------------------------------------------------------------|
   -9-9-9---9-9-9-9-9-9---9-9-9-7-7-7---7-7-7-----------------------|
   -------------------------------------------4-44-5-5-5-5----------|
   -7-7-7---7-7-7-7-7-7---7-7-7-5-5-5---5-5-5-----------------------|
   -------------------------------------------2-22-3-3-3-3----------|


   if you know the song well enough, you can tell which parts are played well,
   like, 
   after certain parts the verse part will be played again. if you dont know it
   that well, 
   just listen to it :)


              

   Wrap | Don't Wrap 
Comments