Limp Bizkit - Re Arranged Chords & Tabs

 

Re Arranged Chords & Tabs

Limp Bizkit Chords & Tabs

Version: 7 Type: Bass Tab 0 ratings
1 star 2 stars 3 stars 4 stars 5 stars
comments

Re Arranged Bass Tab

Limp Bizkit - Re Arranged
Submitted By: Stand Alone (projectwyze13@hotmail.com)

Verse

G:---------------------------------11
D:------11-9--9h11p9-8--8h9p8---11---
A:---11-----------------------9------
E:-9---------------------------------
      Repeat this a lot of times.


Chorus (Cause you and me, We're through and Rearranged)

G:--------------------------------------------------------
D:--------------------------------------------------------
A:---------------------------------6---6---6-6-6-6-6-6-6-6
E:-9-9-9-9-9-9-9-9-9-9-9-9-7-7-7-7---7---7----------------
                  Play this twice.
[ Tab from: http://www.guitartabs.cc/tabs/l/limp_bizkit/re_arranged_btab_ver_7.html ]
G:-----------------------------------------------------------6h8-----8---
D:----11-----11-----11----11----11-----11-----9-----9--------------------
A:--------------------------------------------------------6-------6------
E:-9------9------9-----9-----9------9------7-----7-----7-----------------

Repeat this until everything rocks out, then play:

G:----------------------------------
D:----------------------------------
A:--------------------------6----6-7
E:--9--9-9-9--9--9--7--7--7---7-----

X:--q--s-s-q--e--e--e--q--s-s-q--e-q
since the rythm to this part is a little tricky, heres the timing.*

*the symbols mean:

q= quarter note
e= eighth note
s= sixteenth note
Comments