Limp Bizkit - Re Arranged Chords & Tabs

 

Re Arranged Chords & Tabs

Limp Bizkit Chords & Tabs

Version: 4 Type: Bass Tab 0 ratings
1 star 2 stars 3 stars 4 stars 5 stars
comments

Re Arranged Bass Tab

e--------------------------------------------------------------------/
b--------------------------------------------------------------------/
g--------------------------------------------------------------------/
D----11-9-9h11h9-8-8-------------------------------------------------/
A--11----------------9-9---------------------------------------------/
E-9------------------------------------------------------------------/

e--------------------------------------------------------------------/
b--------------------------------------------------------------------/
g--------------------------------------------------------------------/
D----11-9-9h11h9-8-8-------------------------------------------------/
A--11----------------9-9---------------------------------------------/
E-9------------------------------------------------------------------/
[ Tab from: http://www.guitartabs.cc/tabs/l/limp_bizkit/re_arranged_btab_ver_4.html ]
Comments