Limp Bizkit - Re Arranged Chords & Tabs

 

Re Arranged Chords & Tabs

Limp Bizkit Chords & Tabs

Version: 3 Type: Bass Tab 0 ratings
1 star 2 stars 3 stars 4 stars 5 stars
comments

Re Arranged Bass Tab

Limp Bizkit
Song: Re-arranged 
Album: Significant Other 
Transcribed By : Brandon Chase ( limpbizkik@aol.com ) 
----------------------------------- 
These Bass Tabs are in the exact order played on the album  

 
S= slide down to next note 
P= pull off to next note  

* = hold that note for a quarter 
Intro 

G||-------------------------------------11--|| 
D||------11-9*--9p10s8---8*p9--------11-----||  
A||---11--------------------------11--------|| Repeate!  
E||-9---------------------------9-----------||  
B||-----------------------------------------|| 
* = hold note 
  

This is played after the long first part......  

G||-----------------------------------------|| 
D||-----------------------------------------|| 
A||-----------------------------6_6_6_6_6_6-||  
E||-9_9_9_9_9_9_9_-7_7_7_7_7----------------|| 
B||-----------------------------------------|| 

These are plucked faster than shown 
  

Back to the main part 

G||-------------------------------------11--|| 
D||------11-9*--9p10s8---8*p9--------11-----||  
A||---11--------------------------11--------|| Repeate!   
E||-9---------------------------9-----------||  
B||-----------------------------------------|| 
* = hold note  

Back to this part  
[ Tab from: http://www.guitartabs.cc/tabs/l/limp_bizkit/re_arranged_btab_ver_3.html ]
G||-----------------------------------------|| 
D||-----------------------------------------|| 
A||-----------------------------6_6_6_6_6_6-||  
E||-9_9_9_9_9_9_9_-7_7_7_7_7----------------|| 
B||-----------------------------------------|| 

These are plucked faster than shown  

Do this again - it sounds like the music changes but the bass stays the same, do this 
as many times as needed.........  

G||-----------------------------------------|| 
D||-----------------------------------------|| 
A||-----------------------------6_6_6_6_6_6-||  
E||-9_9_9_9_9_9_9_-7_7_7_7_7----------------|| 
B||-----------------------------------------|| 
  
  
This is where it sounds like everything stops, Sam playes octaves in this part, 
this repeats for a while.  

G||-------------------------------------8---8|| 
D||---11--11'--11--11-11'--11--9--9--9-------|| 
A||------------------------------------6--6--|| 
E||-9---9---9'---9---9--9'---7--7--7---------|| 
B||------------------------------------------|| 
  
  

This is the "rock out " part, it kicks in right after the slow part. 
G||------------------------------------------|| 
D||------------------------------------------|| 
A||---------------------------------6---6-7--|| repeate for 
E||-9--9-9-9--9-9--9-9---7-7--7-7------------||  a while. 
B||------------------------------------------|| 
  
  

G||-------------------------------------11--|| 
D||------11-9*--9p10s8---8*p9--------11-----||  repeate this  
A||---11--------------------------11--------||  
E||-9---------------------------9-----------|| 
B||-----------------------------------------|| 
* = hold note 
Comments