Limp Bizkit - Propaganda Chords & Tabs

 

Propaganda Chords & Tabs

Limp Bizkit Chords & Tabs

Version: 1 Type: Tab 0 ratings
1 star 2 stars 3 stars 4 stars 5 stars
comments

Propaganda Tab

   
Limp Bizkit
Album: The Unquestionable Truth [Part 1]
Track: The Propaganda
Tabbed by: David

C# Sharp Tunning  (C# F# B E G# C#)

Riff A  (Intro/Verse)
C#------------------------------------------------------------------------------------|
G#------------------------------------------------------------------------------------|
E-------------------------------------------------------------------------------------|
B-------------------------------------------------------------------------------------|
F#------------------------------------------------------------------------------------|
C#--0-1-1-1-1-1-1-1-0-1-1-1-1----0-1-1-1-1----0-1-1-1-1----0-1-1-1-1-1-1-1-0-1-1-1-1--|
                       PM                           PM             PM

C#-----------------------|
G#-----------------------|
E---8--8--8--8--8--8--8--|
B---8--8--8--8--8--8--8--|
F#--6--6--6--6--6--6--6--|
C#-----------------------|
     PM


Riff B  (Chorus)
C#-----------------------------------------------------------------------|
G#-----------------------------------------------------------------------|
E------------------------------------------------------------------------|
B------------------------------------------------------------------------|
F#-----------------------------------------------------------------------|
C#--3--0---0--1--3--0--0--0--3--0-----0---3--0---0--1--3--0--0--0--3--0--|

C#----------------------------------------|
G#----------------------------------------|
E-----------------------------------------|
B-----------------------------------------|
F#----------------------------------------|
C#---0---3--0---0--1--3--0--0--0--3--0--0-|

[ Tab from: http://www.guitartabs.cc/tabs/l/limp_bizkit/propaganda_tab.html ]
Riff C  (Bridge, Part 1)
C#-----------------------------------------------------------------------------------------------|
G#-----------------------------------------------------------------------------------------------|
E-------------------------------------------------------14---------------------------------------|
B--------------------------------------------------13--------------------------------------------|
F#--0-0-0-0-0-0-0-0-0-0-0-0-0-0-0-0-0-0-0-0-0-0------0-0-0-0-0-0-0-0-0-0-0-0-0-0-0-0-0-0-0-0-0-0-|
C#-----------------------------------------------------------------------------------------------|
                                  PM

C#--------------|
G#--------------|
E----------15^--|
B----13---------|
F#--------------|
C#--------------|

Riff D  (Bridge, Part 2)

C#--------------------------------------------------------------------------------------|
G#--------------------------------------------------------------------------------------|
E------------8--8--8--8-----------8--8--8--8-----------8--8--8--8-----------8--8--8--8--|
B------------8--8--8--8-----------8--8--8--8-----------8--8--8--8-----------8--8--8--8--|
F#-----------6--6--6--6-----------6--6--6--6-----------6--6--6--6-----------6--6--6--6--|
C#---0--0------------------0--0------------------0--0------------------0--0-------------|

Riff E  (Bridge, Part 3)

C#---------------------------------------------------------|
G#---------------------------------------------------------|
E----------------------------------------------------------|
B--------5------5/6-------------------4-------4/5----------|
F#-------5------5/6-------------------4-------4/5----------|
C#---0--3---0--3/4----------------0--2---0--2/3------------|
                x4                                    x4

Riff F  [Bridge, Part 4 (solo)]

C#---------------------------------------------------------------------|
G#------------------------16----14----20-------------------------------|
E----12-----14/12/14----------------------18----17/18/17/18/17/18---17-|
B----------------------------------------------------------------------|
F#---------------------------------------------------------------------|
C#---------------------------------------------------------------------|

Riff G  (End)

C#---------------------------------------------------------------------|
G#---------------------------------------------------------------------|
E----------------------------------------------------------------------|
B--------5------5/6-----------5------5/6-------------------------------|
F#-------5------5/6---------- 5------5/6-------------------------------|
C#---0--3---0--3/4-------0--3---0--3/4---------------------------------|


That's it. Any corrections or suggestions, just contact me (frodobeckham@hotmail.com).

David
Comments