Limp Bizkit - Pollution Chords & Tabs

 

Pollution Chords & Tabs

Limp Bizkit Chords & Tabs

Version: 4 Type: Tab 0 ratings
1 star 2 stars 3 stars 4 stars 5 stars
comments

Pollution Tab

   
POLLUTION - Limp Bizkit
CGill1403@aol.com

I play pretty much any limp bizkit song tuned a step down to D, but this is how they
tune so i figured i'd put it in like this

Intro-
C#|------------------------------------|
G#|------------------------------------|
B |------------------------------------|
E |------------------------------------| x2
F#|------------------------------------|
C#|-2--0--3--0-02-0--2-2-0-0-3--0-0-2-|

Chorus 1-
C#|------------------------------------|
G#|------------------------------------|
B |------------------------------------|
E |-4-----5------4----4-4-----5------4-| x2
F#|-4-----5------4----4-4-----5------4-|
C#|-2--0--3--0-02-0--2-2-0-0-3--0-0-2-|

Chorus 2- 
C#|-----------------------------------------|
G#|-----------------------------------------|
B |-5/4------------------5/4----------------|
E |-----------5------4-------------5------4-| x2
F#|-3/2-------5------4---3/2-------5------4-|
C#|------0-0--3--0-0-2-0------0-0--3--0-0-2-|

Pre Verse 1- play with wah pedal, toe up
C#|------------------|
G#|------------------|
B |------------------|
E |------------------| x1
F#|------------------|
C#|-2--0--3--0-02-0-|

Verse 1
C#|--------------------------------------|
G#|--------------------------------------|
B |--------------------------------------|
E |--------------------------------------| x4
F#|--------------------------------------|
C#|-2-2-0-0-3--0-0-2-0--2-2-0-0-3--0-0-2-|
PM.......................................
[ Tab from: http://www.guitartabs.cc/tabs/l/limp_bizkit/pollution_tab_ver_4.html ]
Pre Chorus
C#|--------------------------------------------------|
G#|--------------------------------------------------|
B |--------------------------------------------------|
E |-8-8-8-------9------8--------8-8-8-------9------8-| x2
F#|-8-8-8-------9------8--------8-8-8-------9------8-|
C#|-6-6-6--0-0--7--0-0-6-0-0-0--6-6-6--0-0--7--0-0-6-|

Chorus 1 x2

Chorus 2 x2

Pre Verse 2-
C#|--------------------------------------|
G#|--------------------------------------|
B |--------------------------------------|
E |--------------------------------------| x1
F#|--------------------------------------|
C#|-2--0--3--0-0-2-0--2-2-0-0-3--0-0-2-0-|

Verse 2- play with wah
C#|----------------------------------|
G#|----------------------------------|
B |-11-9--12-9--11-9--11-9--12-9--11-|
E |----------------------------------| x4
F#|-9--7--10-7--9--7--9--7--10-7--9--|
C#|----------------------------------|
    +- +- +- +- +- +- +- +- +- +- +-

Pre Chorus 2- played very fast
C#|------------------|
G#|------------------|
B |------------------|
E |------------------| x4
F#|------------------|
C#|-6007006007006070-|

Chorus 1 x2

Chorus 2 x2

Bridge Part 1
C#|---------------------|
G#|---------------------|
B |---------------------|
E |-------5-4-------5-4-| x2
F#|-7-6---------7-6-----|
C#|---------------------|

Bridge Part 2
C#|-----------------------|
G#|-----------------------|
B |-----------4---------4-|
E |-------5-4-------5-4---| x2
F#|-7-6---------7-6-------|
C#|-----------------------|

Bridge Part 3
C#|------------------------------------|
G#|------------------------------------|
B |------------------------------------|
E |-4------5-4----8-------4---5-4----8-| x4
F#|-4------5-4----8-------4---5-4----8-|
C#|-2-0-xx-3-2-xx-6-xx-xx-2-0-3-2-xx-6-|

Pre Chorus 2 x4

Chorus 1 x4

Bridge Part 3 x4
Comments