Limp Bizkit - Pollution Chords & Tabs

 

Pollution Chords & Tabs

Limp Bizkit Chords & Tabs

Version: 1 Type: Tab 0 ratings
1 star 2 stars 3 stars 4 stars 5 stars
comments

Pollution Tab

   
drop-C# tuning from low to high(C#G#C#F#A#D#)
/=slide down
\=slide up
x\\\\\\=scratch pick on string
h=hammer on
p=pull-off
^=bend string
p.m.=palm mute
x=muted string

intro
D#--------------------------------------
A#--------------------------------------
F#--------------------------------------
C#--------------------------------------
G#--------------------------------------
C#-x\\\\\\2-00-3-00-2/3-0--2-00-3-00-2^-

main riff and chorus
D#-------------------------------
A#-------------------------------
F#-------------------------------
C#-------------------------------
G#-2-00-3-00-2/3p0--2-00-3-00-2^-
C#-2-00-3-00-2/3p0--2-00-3-00-2^-

verse 1
D#--------------------------------
A#--------------------------------
F#--------------------------------
C#--------------------------------
G#--------------------------------
C#-2-0-3-0-2/3-0--2-0-3-0-2^------
p.m...............................
[ Tab from: http://www.guitartabs.cc/tabs/l/limp_bizkit/pollution_tab.html ]
pre-chorus 1
D#--------------------------------
A#--------------------------------
F#--------------------------------
C#--------------------------------
G#-6-0-7-0-6/7-0--6-0-7-0-6^------
C#-6-0-7-0-6/7-0--6-0-7-0-6^------

verse 2
D#--------------------------------
A#--------------------------------
F#--------------------------------
C#-2-0-3-0-2/3-0--2-0-3-0-2^------
G#--------------------------------
C#--------------------------------
use wah on this riff

pre-chorus 2 and 3
D#--------------------------------
A#--------------------------------
F#--------------------------------
C#--------------------------------
G#-6-0h7-0h6-0h7-0-6h7p0----------
C#-6-0h7-0h6-0h7-0-6h7p0----------

beginning of the break
D#---12----------12-------
A#------11----------11----
F#-9--------9----------9--
C#------------------------
G#------------------------
C#------------------------
.....then feedback

bridge(gonna bring that beat back.....)
D#------------------------------------
A#------------------------------------
F#------------------------------------
C#------------------------------------
G#-0-6-5-6-7-6xx6x6xx6-0-6-5-6-7-6xx6-
C#-0-6-5-6-7-6xx6x6xx6-0-6-5-6-7-6xx6-

thats it. its a little tough when you first try it though.
Comments