Limp Bizkit - Pollution Chords & Tabs

 

Pollution Chords & Tabs

Limp Bizkit Chords & Tabs

Version: 2 Type: Bass Tab 0 ratings
1 star 2 stars 3 stars 4 stars 5 stars
comments

Pollution Bass Tab

Pollution
by Limp Bizkit
 
tabbed by the rat
 
Intro                                                                                                                    Repeatx2
G--------------------------------------------------------------------------------------------------------------------------------------------
D---------------------------------------------------------------------------------------------------------------------------------------------
A---------------------------------------------------------------------------------------------------------------------------------------------
E---------------------------------------------------------------------------------------------------------------------------------------------
B---4---2---5------2-2-----4--X-2-----4---2---5---2-2--4------4---2---5-----2-2-----4--X-2-----4---2---5---2-2--4--------     Guitar solo
 
Verse
G-----------------------------------------------------------------------------------
D-----------------------------------------------------------------------------------
A-----------------------------------------------------------------------------------Repeat a lot 
E----------------------------------------------------------------------------------- 
B---16/-----4---2---5------2-2----4--X-2-------4---2---5----2-2----4---- 
 
I cant refrain, from bringin on the pain.....
G---------------------------------------------------------------------
D----------------------------------------------------------------------
A---------------------------------------------------------------------- 
E---3---------4-----------3------------4---------3---------4------- 
B--------2---------2-----------2------------2---------2-------------repeat a lot 
 
ooooh  1-2-3......
G----------------------------------------------------------------------------------------------- 
D------------------------------------------------------------------------------------------------ 
A------------------------------------------------------------------------------------------------
E------------------------------------------------------------------------------------------------
B---0--0----0------X---0--0--0-----0--------0--0--0------0------0--0--0-------0------repeat 
 
 
Bring that beat back!......
G------------------------------------------------------------------------------- 
D------------------------------------------------------------------------------- 
A-------------------------------------------------------------------------------- 
E-----------------------------------3-------------------------------3---------- 
B---3---2--XX-----5---4--XX--------XX----3---2----5---4--------------- 
[ Tab from: http://www.guitartabs.cc/tabs/l/limp_bizkit/pollution_btab_ver_2.html ]
Comments