Limp Bizkit - Nookie Chords & Tabs

 

Nookie Chords & Tabs

Limp Bizkit Chords & Tabs

Version: 9 Type: Tab 0 ratings
1 star 2 stars 3 stars 4 stars 5 stars
comments

Nookie Tab

   
Limp Bizkit, Nookie (6-String Version).
Tabbed by Chris Mortimore, cmx_uk@hotmail.com.
  
#----------------------------------PLEASE NOTE---------------------------------#
#This file is the author's own work and represents their interpretation of the #
#song. You may only use this file for private study, scholarship, or research. #
#------------------------------------------------------------------------------#

Limp Bizkit, Nookie

Chris Mortimore (cmx_uk@hotmail.com / www.cmxuk.com)
Song: Nookie
Artist: Limp Bizkit
Album: Significant Other (Flip/Interscope Records)

Note: I havn't put any sign of rhythm in this. Listen to the song to get the right bits

Legend
------

 p  = pull-off
 /  = slide up/down

[ Tab from: http://www.guitartabs.cc/tabs/l/limp_bizkit/nookie_tab_ver_9.html ]
e|------------------------|
B|------------------------|
G|------------------------|
D|------------------------|
A|----10p9------9-------9-|
E|-9-------9p10----9p10---|
   Verse                    

e|-------------|
B|-7-7-7-7-7/8-|
G|-------------|
D|-4-4-4-4-4/5-|
A|-------------|
E|-------------|
  Bridge (Like a chump bit) 

e|-----3--|
B|-----3--|
G|-----1--|
D|-2-3----|
A|-2-3----|
E|-0-1----|
  Chorus

E|--------------------------------------------------|-
B|--------------------------------------------------|-
G|--------------------------------------------------|-
D|--------------------------------------------------|-
A|-----------------------------0-0-0-0-0--0-0-0-----|-
E|-0-2-2-2/3\2-0-0-0-0-0-0-0-0------------------0-2-|-
  The Odd Speakin Bit (Or breakdown, whichever) 

:: Ultimate Guitar Archive :: 
http://www.ultimate-guitar.com
Comments