Limp Bizkit - Nookie Chords & Tabs

 

Nookie Chords & Tabs

Limp Bizkit Chords & Tabs

Version: 5 Type: Tab 0 ratings
1 star 2 stars 3 stars 4 stars 5 stars
comments

Nookie Tab

   
SONG: Nookie
Band: Limp Bizkit
Album: Significant Other
Transcribed by: Nick "Head Wannabe" Di Claudio
7 string,normaly tuned

Intro

a||---------------------|| Reapeat 4 times
e||---------------------||
B||---------------------||
G||---------------------||
D||--------5------5-4---||
A||---------------------||
E||--2h3p2----2h3-------||

Chorus
"I get in on with the nookie!HEY!the nookie!HEY!..."
a||---------------------||
e||---------------------||
B||---------------------||
G||-------*---------*---||
D||--22-4-5--2--2-4-5---||
A||--22-4----2--2-4-----||
E||--00-2----0--0-2-----||

Verse

a||-------------------------------------------------------|| Repeat
e||-------------------------------------------------------|| sev.x
B||-------------------------------------------------------||
G||----4h5-4-4h5-4--------5-4-4h5-5p4--------5-4-2-4h5p4--||
D||-------------------------------------------------------||
A||---0-------------0-------------------0-0---------------||
E||-0h2-------------0h2---------------0h2p0---------------||

Fill
"(Hey)Like a chump(Hey)..."
a||--------------xx--||
e||--------------xx--||
B||--*-*-*-*-*-------||
G||--3-3-3-3-3-^-----||
D||------------------||
A||------------------||
E||------------------||
[ Tab from: http://www.guitartabs.cc/tabs/l/limp_bizkit/nookie_tab_ver_5.html ]
Riff A
When fred uses a voice syntheziser
a||-------------------------6-------------------------------------||
e||-------------------------*-------------------------------------||
B||---------------------------------------------------------------||
G||---------------------------------------------------------------||
D||---------------------------------------------------------------||
A||---------------------------------------------------------------||
E||--0h2---0h2---0h2----0h2-----0-0-0-0-0-0-0-0--5-5-5-5-5-5-5-5--||

Riff B
heavier version
a||---------------------------------------------------------------||
e||---------------------------------------------------------------||
B||---------------------------------------------------------------||
G||---------------------------------------------------------------||
D||--1-2--1-2--1-2--1-2--1-2----1-1-1-1-1-1-1-1--5-5-5-5-5/6-5-5--||
A||--0-2--0-2--0-2--0-2--0-2----0-0-0-0-0-0-0-0--5-5-5-5-5-5-5-5--||
E||--0-2--0-2--0-2--0-2--0-2----0-0-0-0-0-0-0-0--5-5-5-5-5-5-5-5--||

Chorus last time played

a||----------------------||
e||----------------------||
B||----------------------||
G||-------*----------*---||
D||--22-4-5^-2--22-4-5^--||
A||--22-4----2--22-4-----||
E||--00-2----0--00-2-----||
That's about it,hope ya like it, but for all those newcomers heres a 
legend...
x=noteless     h= hammer      ^= bend         /= slide
  picking      p= pull off    *= harmonic.
thats all,questions? my email is korn_rules42@hotmail.com
______________________________________________________________________
there,now that should do it,thanx alot,if you need any help or
anything,just 
gimme a ringer k?
      -Nick
Comments