Limp Bizkit - Nookie Chords & Tabs

 

Nookie Chords & Tabs

Limp Bizkit Chords & Tabs

Version: 3 Type: Tab 0 ratings
1 star 2 stars 3 stars 4 stars 5 stars
comments

Nookie Tab

   
Limp Bizkit
Nookie
tabed by   Jason   (blind605@aol.com)

Tuning- down 1 1/2 steps  ( F#, F#, B, E, G#, C#)

Into     (clean) 	play 4 times		(w/dist)    play 8 times
----------------------------------------	           ----------------------------------------                                      	           ----------------------------------------               ----------------------------------------
--------------15--------------15------	           --------------15--------------15------
----------------------------------------	           ----------------------------------------
--------------13--------------13------	           --------------13--------------13------
---3/--0--0-------0--3/--0-------0---	           ---3/--0--0-------0--3/--0-------0---
            

(clean)

----------------------------------------                --------------------------------------------
----------------------------------------                --------------------------------------------
--------------15--------------15------                --------------------------------------------
----------------------------------------  	            --------------------------------------------
--------------13--------------13------                ----------13--12-------------------------0
---3/--0--0-------0--3/--0-------0---                ---0-----------------12/--13--14--12----



Pre-chorus

---------------------------------------------------------------------------------------------------------------------------------
---------------------------------------------------------------------------------------------------------------------------------
----------------------------------------------------------------14-------------14----------14---------14-------------14/15-
---------------------------------------------------------------------------------------------------------------------------------
------------13--12-------------------------------0------------12------------12----------12----------12-------------12/13-
----0------------------12/--13---14---12-----------------0-----------0--0--------0--0--------0--0--------0---0----------


-------------------------------------------------------------------------------------------------------------------
-------------------------------------------------------------------------------------------------------------------
---------14--------------14-------------14----------------14--------------14/-15-----------------------------
-------------------------------------------------------------------------------------------------------------------
---------12--------------12-------------12----------------12--------------12/-13-----------------------------
---0-----------0---0------------0---0----------0---0-------------0---0-----------------------------------------


First Chorus

(w/dist)

---------------------------------------------------
---------------------------------------------------
-------------15---------------15-----------------
---------------------------------------------------
-------------13---------------13-----------------
---3/-0--0--------0--3/-0----------0------------




Second and Third Chorus
[ Tab from: http://www.guitartabs.cc/tabs/l/limp_bizkit/nookie_tab_ver_3.html ]
-------------------------------------------------------------------------------
--------------------------------------------------------------------------------
-------14-------------14--------------14------------14--------------14/-15-
---------------------------------------------------------------------------------
-------12-------------12--------------12------------12--------------12/-13-
--0----------0---0-----------0---0---------0---0---------0---0--------------

(w/dist)
----------------------------------------------
----------------------------------------------
--------------15------------------15--------
----------------------------------------------
--------------13------------------13--------
--3/-0---0-----------0---3/-0-----------0--



Bridge
 						(clean)
-------------------------------------------               ---------------------------------------------------------
-------------------------------------------               ---------------------------------------------------------
-------------15---------------15---------               ---------------------------------------------------------
-------------------------------------------               ---------------------------------------------------------
-------------13---------------13---------               --0------------0---0----------0------------0----------
--3/-0---0-------0--3/-0-------------0--               ------0---0------------0--0-------0--0---------0--0--


---------------------------------------------------------------            
---------------------------------------------------------------            
---------------------------------------------------------------            
---------------------------------------------------------------            
--0------------0------------------0------------0-------------            
------0---0----------0---0---0--------0--0---------0----0--           

play 4 times
-----------------------------------------------------------------
-----------------------------------------------------------------
-----------------------------------------------------------------
-----------------------------------------------------------------
10-10-10-10-10-10-10-10/-15-15-15-15-15/-13-13-13
10-10-10-10-10-10-10-10/-15-15-15-15-15/-13-13-13


-----------------------------------------------------------------------------------
-----------------------------------------------------------------------------------
-----14----x------14----x--x----14----x-----14------x-------14/-15---------
-----------------------------------------------------------------------------------play 3 times
-----12----x------12----x--x----12----x-----12------x-------12/ 13---------
0----------------------------------------------------------------------------------









Outro


----------------------------------------------------------------------------------
----------------------------------------------------------------------------------
----14-------14------------14------------14-------------14/-15---------------
-----------------------------------------------------------------------------------
----12-------12------------12------------12-------------12/-13---------------
-0--------0---------0--0----------0--0----------0--0------------------10---12

-----------------------------------------------------------------------------------------------
------------------------------------------------------------------------------------------------
----14-------14------------14------------14-------------14/-15----------------------------
------------------------------------------------------------------------------------------------
----12-------12------------12------------12-------------12/-13----------------------------
-0--------0---------0--0----------0--0----------0--0------------------10---12----10---12
play outro 3 times and fade out last time
Comments