Limp Bizkit - Nookie Chords & Tabs

 

Nookie Chords & Tabs

Limp Bizkit Chords & Tabs

Version: 12 Type: Tab 0 ratings
1 star 2 stars 3 stars 4 stars 5 stars
comments

Nookie Tab

   
Limp Bizkit - Nookie
Tuning: C#, F#, B, E, G#, C#
Tabbed by: Steve Q
Wes uses a four string for this song but if you are like me and can't afford/be bothered to make
a four string guitar then this tab may help you 

Intro
Played clean x4
C#--------------------------------------------------------------------
G#--------------------------------------------------------------------
E --------------------------------------------------------------------
B -----------------5-5--4------------------5--------------------------
F#--------------------------------------------------------------------
C#---2/9---9/2----------2/9---9/2-------2-----------------------------

Slightly palm mute everything on the lowest string


Chorus	
With distortion
C#---------------------------------------------------------------------
G#---------------------------------------------------------------------
E ---------------------------------------------------------------------
B -----------4-------5-5----4----------4----5-----4--------------------
F#---------------------------------------------------------------------
C#----0----2-------------2-----0----2-----------2----------------------
[ Tab from: http://www.guitartabs.cc/tabs/l/limp_bizkit/nookie_tab_ver_12.html ]
Verse
This is difficult to hear but its there, I think it's:
C#---------------------------------------------	
G#---------------------------------------------
E ---------------------------------------------
B ---------------------------------------------
F#-----------------13-12---13-12------------0--
C#---0----------------------------13-12--------

Pre-Chorus

C#-----------------------------------
G#-----------------------------------
E -----------------------------------
B ---------12---12--12--12--12/13----
F#------10---10---10--10--10/11------
C#----0----0-----0----0---0----------


Bridge

C#-------------------	| ---------------------------------------------
G#------------------- 	| ---------------------------------------------
E ------------------- 	| ---------------------------------------------
B -------------------	| ---------------------------------------------
F#----0---0---0------	| ----10-10-10-10-10-15-15-15-15-13------------
C#--0--00-00--------- 	| ----10-10-10-10-10-15-15-15-15-13------------

Play the first bit palm muted 3 times then the second part once then repeat


Ending

C#-----------------------------------------------
G#-----------------------------------------------
E   ---------------------------------------------
B ---------12---12---12---12---12---12/13--------
F#-------10---10---10---10---10---10/11----------
C#----0------------------------------------10--12--

Palm mute all note on the low C# string
The second time round repeat the last two notes


Any questions or comments e-mail crunchie36@hotmail.com
Comments