Limp Bizkit - Nookie Chords & Tabs

 

Nookie Chords & Tabs

Limp Bizkit Chords & Tabs

Version: 11 Type: Tab 0 ratings
1 star 2 stars 3 stars 4 stars 5 stars
comments

Nookie Tab

   
This is my personal favorite.....

Tuning (F# F# B E) low to high

Its standard limp bizkit tuning
its just the bottom string is tunned 
down low, The bottom string is a .65 gauge sting
the other three are almost standard Reg stings
but i work with med....

Wes borlin is using a custom 4-string guitar
it's kinda cool.....
===================================================
Intro (4x clean Tone)
|=|------------15----------15------|
|=|--------------------------------|
|=|------------13----------13------|
|=|----3\0--0------0--3\0------0---|
===================================================
Add Intro (8x Dist. Tone)
|=|------------15----------15------|
|=|--------------------------------|
|=|------------13----------13------|
|=|----3\0--0------0--3\0------0---|
===================================================
Verse 1 (7x cleanTone)
|=|--------------------------------|
|=|--------------------------------|
|=|------------13-12----12-13-0----|
|=|----0-------------0-------------|
Play top 7x then bottom 2x
|=|--------------------------------|
|=|--------------------------------|
|=|------------13-12----------0----|
|=|----0-------------0--12-13------|
===================================================
Like a chump Riff
P.M. 0's (4x clean Tone)
|=|-------14------14------14------14------14\15--|
|=|----------------------------------------------|
|=|-------12------12------12------12------12\13--|
|=|----0-----0--0----0--0----0--0----0--0--------|
===================================================
play Verse 1 part again for verse 2
===================================================
Chorus play Add Intro part 8x
===================================================
play Verse 1 part again for verse 3
===================================================
Play like a chump Riff 4x
===================================================
Chorus play Add Intro part 8x
===================================================
Slow part in middle of song (Constant flow)
( 4x clean tone)
|=|----------------------------------|
|=|----------------------------------|
|=|----0------0-------0------0-------|
|=|------0--0---0-0-0---0--0---0-0-0-|
[ Tab from: http://www.guitartabs.cc/tabs/l/limp_bizkit/nookie_tab_ver_11.html ]
|=|----------------------------------|
|=|----------------------------------|
|=|----0------0-------0------0-------|
|=|------0--0---0-0-0---0--0---0-0-0-|

|=|----------------------------------|
|=|----------------------------------|
|=|----0------0-------0------0-------|
|=|------0--0---0-0-0---0--0---0-0---|

|=|---------------------------------------------------|
|=|---------------------------------------------------|
|=|-10-10-10-10-10-10-10-10/15-15-15-15-15\13-13-13---|
|=|-10-10-10-10-10-10-10-10/15-15-15-15-15\13-13-13---|
========================================================

Aint nothing gunna change part.... (12x clean Tone)
|=|------14----14----14----14----14/15---|
|=|--------------------------------------|
|=|------12----12----12----12----12/13---|
|=|----0-----0-----0-----0-----0---------|
========================================================
or instead of playing the top 12x play the top part 10x and play this part below through the last part......... or you can play your 12 and let another guitar play it for the the last two..... confusing i know but just listen to the song.
========================================================
(And im just gonna stay here and always be the same.......!)
|=|--------------------------------------------------------
|=|--------------------------------------------------------
|=|----5-5-5-5-5-5-5-5-5-5-5-5-5-5-7-7-7-7-7-7-7/10-10-10--
|=|----5-5-5-5-5-5-5-5-5-5-5-5-5-5-7-7-7-7-7-7-7/10-10-10--
All one riff....
|=|-----------------|
|=|-----------------|
|=|--10-10-10-10-10-|
|=|--10-10-10-10-10-|

========================================================
Now play chorus part 8x
========================================================
Outro 2x last time when done fade........
|=|------14----14----14----14----14\15----------|
|=|---------------------------------------------|
|=|------12----12----12----12----12\13---10-12--|
|=|----0-----0-----0-----0-----0---------10-12--|

|=|------14----14----14----14----14\15------------------|
|=|-----------------------------------------------------|
|=|------12----12----12----12----12\13---10-12---10-12--|
|=|----0-----0-----0-----0-----0---------10-12---10-12--|
========================================================
thats it, its actually very easy to play and easy to remember
well have fun...........
Comments