Limp Bizkit - Nookie Chords & Tabs

 

Nookie Chords & Tabs

Limp Bizkit Chords & Tabs

Version: 1 Type: Tab 0 ratings
1 star 2 stars 3 stars 4 stars 5 stars
comments

Nookie Tab

============================================
"Nookie" 
By Limp Bizkit
Album: Significant Other
Transcribed: Adrian Brown and Billy Donovan  Comments or suggestions?
email me at:  (skater6016@aol.com)
============================================


(Choruses are the same as each other)


Intro:  (BASS IN PARENTHISIS) just for intro, but it sounds good with
guitar too.
E-------------------------------
B-------------------------------
G-------------------------------
D----------5--------5--4--------
A-------------------------------
E----(3-2)---(2-3-2)------------ 



Hard part after intro (Same as Chorus):
E---------------------------------------------
B---------------------------------------------
G---------------------------------------------
D--2--4---5---2--2--4---5---------------------
A--2--4-------2--2--4-------------------------
E--0--2-------0--0--2-------------------------


[ Tab from: http://www.guitartabs.cc/tabs/l/limp_bizkit/nookie_tab.html ]
Verse 1:
E-----------------------------------------------------
B-----------------------------------------------------
G-----------------------------------------------------
D---------4h5-4-4h5-4-4-------------------------------
A-----------------------------------------------------
E---0--2----------------------------------------------



During "Like a chump, hey"

E-----------------------------
B-----------------------------
G-----------------------------
D--4-4-4-4-4h5----------------
A-----------------------------
E----------------------------- 4 Times



Bridge bass part (No guitar right here)

E---------------------------------------------
B---------------------------------------------
G---------------------------------------------
D---------------------------------------------
A---------------------------------------------
E--0-2-0-2-0-2----0 (8 times)--5--(8 times)---repeat 4 times

  

Bridge guitar part after soft bass part    

E------------------------------
B------------------------------
G------------------------------
D---4-4-4-4-4h5----------------
A------------------------------
E------------------------------

Comments