Limp Bizkit - Nobody Likes You Chords & Tabs

 

Nobody Likes You Chords & Tabs

Limp Bizkit Chords & Tabs

Version: 1 Type: Tab 0 ratings
1 star 2 stars 3 stars 4 stars 5 stars
comments

Nobody Likes You Tab

Song: Nobody Like You
Artist:limp bizkit
Album: Significant Other 
Tuning: Dropped d
*   = harmonic    /   = slide up
\   = slide down  ~   = let it ring

-=Intro/Outro::: 
e|-------------------------------------------------------| 
b|-------------------------------------------------------|
g|------------------------------------------------7------|
d|---0-0-0-----0-1-0-0-------0-1-0-0-----0-1-0-0--x------|
a|---0-0-0-----0-1-0-0-------0-1-0-0-----0-1-0-0--5------| 
d|---0-0-0-3*--0-1-0-0-3*----0-1-0-0-3*--0-1-0-0---------|
  
[ Tab from: http://www.guitartabs.cc/tabs/l/limp_bizkit/nobody_likes_you_tab.html ]
-=think verse:::
e|-----------------------------------3------| 
b|-----10~--10-11-13-13-11-8-8--4--3---4-6--|
g|------------------------------------------|
d|------------------------------------------|
a|------------------------------------------|
d|------------------------------------------| 
Tremlo pick the above 

-=Chorus::: 
e|-----------------------------| 
b|-----------------------------|
g|-----------------------------|
d|---0-0-0-0-0-0-6-5-0-0-3-2---|
a|---0-0-0-0-0-0-6-5-0-0-3-2---| 
d|---0-0-0-0-0-0-6-5-0-0-3-2---|  

-=bridge/coda:::
e|-------------------------------------------| 
b|-------------------------------------------| 
g|-------------------------------------------| 
d|-----3------------3----------------3-------|
a|-------5-5-5-5-5---5-5-5-5-3-5---0---3-----| 
d|-------------------------------------------| 

I'm not sure about this, so email me if you've got a better tab.
wilkowolbers@hotmail.com
Comments