Limp Bizkit - Nobody Likes You Chords & Tabs

 

Nobody Likes You Chords & Tabs

Limp Bizkit Chords & Tabs

Version: 1 Type: Chords 0 ratings
1 star 2 stars 3 stars 4 stars 5 stars
comments

Nobody Likes You Chords

   
Limp Bizkit-Significant Other
SONG: Nobody Like You

Intro
      k+f        k+f 2x
G||------5----------5--|--4^--5^--||
D||--------------------|----------||
A||--0-0----2-0-0-0----|----------||

Verse
"I'm convinced that you hate me..."
G||-------------------||
D||-------------------||
A||--0-0--7-0-0--7-0--||
[ Tab from: http://www.guitartabs.cc/tabs/l/limp_bizkit/nobody_likes_you_crd.html ]
Chorus
"I got a reason that i won't let go..."
G||--2----2----8-7----5-4--||
D||--2-xx-2-xx-8-7-xx-5-4--||
A||--0-xx-0-xx-6-5-xx-3-2--||

Riff A
"I..got..no..reason..."
G||---------------------------||
D||--8-5-3-5-3-5-8-5-3-5-3-5--||
A||-[pm.....................]-||

G||---------------------------------||
D||--8-5-3-5-3-5-8-5-3-5-3-5-3-5-0--||
A||---------------------------------||
Comments