Limp Bizkit - Nobody Like You Chords & Tabs

 

Nobody Like You Chords & Tabs

Limp Bizkit Chords & Tabs

Version: 2 Type: Tab 0 ratings
1 star 2 stars 3 stars 4 stars 5 stars
comments

Nobody Like You Tab

Limp Bizket Nobody Like You.
Tabbed by the_monkfish monkfish_mikey@yahoo.com.
  

        INTRO:  (heavy distortion throughout song)

F#           ---------------------------------------------------------
B       ---------------------------------------------------------
E       ---------------------------------------------------------
G#      ---------------------------------------------------------
C#      ---------------------------------------------------------
C#           --0------0----3----1-----0----0----0----3-----1------
        



F#      ---------------------------------------------------------
B       ---------------------------------------------------------
E       ---------------------------------------------------------
G#      ----------------------------------------/6-----6--------
C#      ----------------------------------------/7-----7--------
C#      --0------0----0---3----1---0---0---------------------


[ Tab from: http://www.guitartabs.cc/tabs/l/limp_bizkit/nobody_like_you_tab_ver_2.html ]
        CHORUS:  ( repeat as necessary)

F#      ----------------------------------------------------------
B       ----------------------------------------------------------
E       ----------------------------------------------------------
G#      ----------------------------------------------------------
C#      ---2------------2-------2---------2--------2----2------
C#      ---0------------0-------0---------0--------0----0------


F#      ----------------------------------------------------------------------
B       ----------------------------------------------------------------------
E       ----------------------------------------------------------------------
G#      ----------------------------------------------------------------------
C#      ----8------7--------------------------5----------4--------2----2---
C#      ----6------5--------------0-----0----3----------2--------0----0--- 
:: Ultimate Guitar Archive :: 
http://www.ultimate-guitar.com 

Comments