Limp Bizkit - No Trust Chords & Tabs

 

No Trust Chords & Tabs

Limp Bizkit Chords & Tabs

Version: 2 Type: Tab 0 ratings
1 star 2 stars 3 stars 4 stars 5 stars
comments

No Trust Tab

   
No Trust?
Limp BIzkit
Signifigant Other
Justin G.
goong4@yahoo.com

First off go pick up the new album its totally awesome!

I don't know the very begginging where wes is strumming some clean
chords just improvise.


This is guitar and/or bass

|----------------------------------------------------------------------|
|----------------------------------------------------------------------|
|(played extremly
fast)------------------------------------------------|
|----------------------------------------------------------------------|
|----------------------------------------------------------------------|
|5-4-3/2-2/3-6-----5-4-3/2-2/3-6----5-4-3/2-2/3-6----8-7-6/5-5/6-9-----|

When Fred says, "one two one two one two WTF you gonna do?", just play
the litle 5-4 
thingie 3 times; then end with this on guitar
...
|----------------------------------------------------------|
|----------------------------------------------------------|
|----------------------------------------------------------|
|----------------------------------------------------------|
|3-4-3-2-5-6-7---------------------------------------------|
|----------------------------------------------------------|


then if you want just do it as power chords from then on to make it
sound heavier.
...
____|----------------------------------------------------------------------|
____|----------------------------------------------------------------------|
____|(played extremly
fast)------------------------------------------------|
____|7-6-5/4-4/5-4-----7-6-5/4-4/5-4----7-6-5/4-4/5-4---11-9-8/7-7/8-7-----|
____|7-6-5/4-4/5-4-----7-6-5/4-4/5-4----7-6-5/4-4/5-4---11-9-8/7-7/8-7-----|
____|5-4-3/2-2/3-6-----5-4-3/2-2/3-6----5-4-3/2-2/3-6----8-7-6/5-5/6-9-----|

fill in 3 times during each 5-4-3 riff 
____|-9/11-|
____|------|
____|------|
____|------|
____|------|
____|------| 


VERSE
[ Tab from: http://www.guitartabs.cc/tabs/l/limp_bizkit/no_trust_tab_ver_2.html ]
|-----|
|-----|
|-----|
|3/4-3|
|3/4-3|
|1/2-1| 

Play before every chorus starts

|----------------------------------------------------------|
|----------------------------------------------------------|
|----------------------------------------------------------|
|----------------------------------------------------------|
|0h3h5-3h5-3h5-6-------------------------------------------|
|----------------------------------------------------------|

CHORUS
|----------------------------------------------------------------------|
|----------------------------------------------------------------------|
|(played extremly
fast)------------------------------------------------|
|7-6-5/4-4/5-4-----7-6-5/4-4/5-4----7-6-5/4-4/5-4---11-9-8/7-7/8-7-----|
|7-6-5/4-4/5-4-----7-6-5/4-4/5-4----7-6-5/4-4/5-4---11-9-8/7-7/8-7-----|
|5-4-3/2-2/3-6-----5-4-3/2-2/3-6----5-4-3/2-2/3-6----8-7-6/5-5/6-9-----|

fill in 3 times during each 5-4-3 riff 
|-9h11-|
|------|
|------|
|------|
|------|
|------| 

 
INTERLUDE PART 1. Played on guitar and bass,but play the bass on the
top string
|-----------------|
|-----------------| repeat many time
|3-2-2-7-6-5-4-3-2|
|-----------------|
|-----------------|
|-----------------|
INTERLUDE Part 2. The bass is just playing on note here I think.
|-----|
|-----|
|-----|
|-----|
|3h5--|  just do that a bunch and whenever needed.
|-----|
INTERLUDE Part 3. Use some effects now and then to make this sound
different and cool.
Like playing a dead chord everynow and then.
|----------------------------------------------------------|
|----------------------------------------------------------|
|----------------------------------------------------------|
|5-6-5-6-5-4-----------------------------------------------|
|5-6-5-6-5-4-----------------------------------------------|
|3-4-3-4-3-2-----------------------------------------------|

That's about it!
Comments